  0
SECTION
  2
HEADER
  9
$ACADVER
  1
AC1009
  9
$INSBASE
 10
0.0
 20
0.0
 30
0.0
  9
$EXTMIN
 10
-260.02197097989512
 20
-399.8393251062497
 30
-0.0015258207003583
  9
$EXTMAX
 10
460.0219743326561
 20
670.62804802803294
 30
0.0000000349246037
  9
$LIMMIN
 10
0.0
 20
0.0
  9
$LIMMAX
 10
0.0
 20
0.0
  9
$ORTHOMODE
 70
     0
  9
$REGENMODE
 70
     1
  9
$FILLMODE
 70
     1
  9
$QTEXTMODE
 70
     0
  9
$MIRRTEXT
 70
     1
  9
$DRAGMODE
 70
     2
  9
$LTSCALE
 40
20.32
  9
$OSMODE
 70
   231
  9
$ATTMODE
 70
     1
  9
$TEXTSIZE
 40
0.0
  9
$TRACEWID
 40
1.0
  9
$TEXTSTYLE
  7
STANDARD
  9
$CLAYER
  8
DATA
  9
$CELTYPE
  6
BYLAYER
  9
$CECOLOR
 62
   256
  9
$DIMSCALE
 40
1.0
  9
$DIMASZ
 40
0.18
  9
$DIMEXO
 40
0.0625
  9
$DIMDLI
 40
0.38
  9
$DIMRND
 40
0.0
  9
$DIMDLE
 40
0.0
  9
$DIMEXE
 40
0.18
  9
$DIMTP
 40
0.0
  9
$DIMTM
 40
0.0
  9
$DIMTXT
 40
0.18
  9
$DIMCEN
 40
0.09
  9
$DIMTSZ
 40
0.0
  9
$DIMTOL
 70
     0
  9
$DIMLIM
 70
     0
  9
$DIMTIH
 70
     1
  9
$DIMTOH
 70
     1
  9
$DIMSE1
 70
     0
  9
$DIMSE2
 70
     0
  9
$DIMTAD
 70
     0
  9
$DIMZIN
 70
     0
  9
$DIMBLK
  1

  9
$DIMASO
 70
     1
  9
$DIMSHO
 70
     1
  9
$DIMPOST
  1

  9
$DIMAPOST
  1

  9
$DIMALT
 70
     0
  9
$DIMALTD
 70
     2
  9
$DIMALTF
 40
25.399999999999999
  9
$DIMLFAC
 40
1.0
  9
$DIMTOFL
 70
     0
  9
$DIMTVP
 40
0.0
  9
$DIMTIX
 70
     0
  9
$DIMSOXD
 70
     0
  9
$DIMSAH
 70
     0
  9
$DIMBLK1
  1

  9
$DIMBLK2
  1

  9
$DIMSTYLE
  2
STANDARD
  9
$DIMCLRD
 70
     0
  9
$DIMCLRE
 70
     0
  9
$DIMCLRT
 70
     0
  9
$DIMTFAC
 40
1.0
  9
$DIMGAP
 40
0.09
  9
$LUNITS
 70
     2
  9
$LUPREC
 70
     4
  9
$SKETCHINC
 40
0.1
  9
$FILLETRAD
 40
0.0
  9
$AUNITS
 70
     0
  9
$AUPREC
 70
     0
  9
$MENU
  1
acad
  9
$ELEVATION
 40
0.0
  9
$PELEVATION
 40
0.0
  9
$THICKNESS
 40
0.0
  9
$LIMCHECK
 70
     0
  9
$BLIPMODE
 70
     0
  9
$CHAMFERA
 40
0.0
  9
$CHAMFERB
 40
0.0
  9
$SKPOLY
 70
     0
  9
$TDCREATE
 40
2456160.4733449081
  9
$TDUPDATE
 40
2456160.4748632638
  9
$TDINDWG
 40
0.0003657407
  9
$TDUSRTIMER
 40
0.0003651968
  9
$USRTIMER
 70
     1
  9
$ANGBASE
 50
0.0
  9
$ANGDIR
 70
     0
  9
$PDMODE
 70
     1
  9
$PDSIZE
 40
-2.0
  9
$PLINEWID
 40
0.0
  9
$COORDS
 70
     2
  9
$SPLFRAME
 70
     0
  9
$SPLINETYPE
 70
     6
  9
$SPLINESEGS
 70
     8
  9
$ATTDIA
 70
     0
  9
$ATTREQ
 70
     1
  9
$HANDLING
 70
     1
  9
$HANDSEED
  5
360
  9
$SURFTAB1
 70
     6
  9
$SURFTAB2
 70
     6
  9
$SURFTYPE
 70
     6
  9
$SURFU
 70
     6
  9
$SURFV
 70
     6
  9
$UCSNAME
  2

  9
$UCSORG
 10
0.0
 20
0.0
 30
0.0
  9
$UCSXDIR
 10
1.0
 20
0.0
 30
0.0
  9
$UCSYDIR
 10
0.0
 20
1.0
 30
0.0
  9
$PUCSNAME
  2

  9
$PUCSORG
 10
0.0
 20
0.0
 30
0.0
  9
$PUCSXDIR
 10
1.0
 20
0.0
 30
0.0
  9
$PUCSYDIR
 10
0.0
 20
1.0
 30
0.0
  9
$USERI1
 70
     0
  9
$USERI2
 70
     0
  9
$USERI3
 70
     0
  9
$USERI4
 70
     0
  9
$USERI5
 70
     0
  9
$USERR1
 40
0.0
  9
$USERR2
 40
0.0
  9
$USERR3
 40
0.0
  9
$USERR4
 40
0.0
  9
$USERR5
 40
0.0
  9
$WORLDVIEW
 70
     1
  9
$SHADEDGE
 70
     3
  9
$SHADEDIF
 70
    70
  9
$TILEMODE
 70
     1
  9
$MAXACTVP
 70
    64
  9
$PLIMCHECK
 70
     0
  9
$PEXTMIN
 10
1.0000000000000000E+020
 20
1.0000000000000000E+020
 30
1.0000000000000000E+020
  9
$PEXTMAX
 10
-1.0000000000000000E+020
 20
-1.0000000000000000E+020
 30
-1.0000000000000000E+020
  9
$PLIMMIN
 10
0.0
 20
0.0
  9
$PLIMMAX
 10
12.0
 20
9.0
  9
$UNITMODE
 70
     0
  9
$VISRETAIN
 70
     0
  9
$PLINEGEN
 70
     1
  9
$PSLTSCALE
 70
     0
  0
ENDSEC
  0
SECTION
  2
TABLES
  0
TABLE
  2
VPORT
 70
     1
  0
VPORT
  2
*ACTIVE
 70
     0
 10
0.0
 20
0.0
 11
1.0
 21
1.0
 12
100.00000167638061
 22
136.4681874872235
 13
0.0
 23
0.0
 14
1.0
 24
1.0
 15
0.0
 25
0.0
 16
0.0
 26
0.0
 36
1.0
 17
0.0
 27
0.0
 37
0.0
 40
1076.742741221552
 41
2.1881578947368419
 42
50.0
 43
0.0
 44
0.0
 50
0.0
 51
0.0
 71
     0
 72
  2000
 73
     1
 74
     1
 75
     0
 76
     0
 77
     0
 78
     0
  0
ENDTAB
  0
TABLE
  2
LTYPE
 70
    13
  0
LTYPE
  2
CONTINUOUS
 70
     0
  3
Solid line
 72
    65
 73
     0
 40
0.0
  0
LTYPE
  2
PHANTOM2
 70
     0
  3
___ _ _ ___ _ _ ___ _ _ ___ _ _
 72
    65
 73
     6
 40
1.25
 49
0.625
 49
-0.125
 49
0.125
 49
-0.125
 49
0.125
 49
-0.125
  0
ENDTAB
  0
TABLE
  2
LAYER
 70
     5
  0
LAYER
  2
0
 70
     0
 62
     7
  6
CONTINUOUS
  0
LAYER
  2
DATA
 70
     0
 62
     7
  6
CONTINUOUS
  0
LAYER
  2
HIBINO-BASE
 70
     0
 62
     7
  6
CONTINUOUS
  0
LAYER
  2
SPEC
 70
     0
 62
     7
  6
CONTINUOUS
  0
LAYER
  2
DIMNSIONS
 70
     0
 62
     7
  6
CONTINUOUS
  0
ENDTAB
  0
TABLE
  2
STYLE
 70
     3
  0
STYLE
  2
STANDARD
 70
     0
 40
0.0
 41
1.0
 50
0.0
 71
     0
 42
0.0
  3
txt
  4
BIGFONT.SHX
  0
ENDTAB
  0
TABLE
  2
VIEW
 70
     0
  0
ENDTAB
  0
TABLE
  2
UCS
 70
     0
  0
ENDTAB
  0
TABLE
  2
APPID
 70
     4
  0
APPID
  2
ACAD
 70
     0
  0
APPID
  2
ACADANNOTATIVE
 70
     0
  0
APPID
  2
ACAD_NAV_VCDISPLAY
 70
     0
  0
APPID
  2
ACAD_MLEADERVER
 70
     0
  0
ENDTAB
  0
TABLE
  2
DIMSTYLE
 70
     2
  0
DIMSTYLE
  2
STANDARD
 70
     0
  3

  4

  5

  6

  7

 40
1.0
 41
0.18
 42
0.0625
 43
0.38
 44
0.18
 45
0.0
 46
0.0
 47
0.0
 48
0.0
140
0.18
141
0.09
142
0.0
143
25.399999999999999
144
1.0
145
0.0
146
1.0
147
0.09
 71
     0
 72
     0
 73
     1
 74
     1
 75
     0
 76
     0
 77
     0
 78
     0
170
     0
171
     2
172
     0
173
     0
174
     0
175
     0
176
     0
177
     0
178
     0
  0
ENDTAB
  0
ENDSEC
  0
SECTION
  2
BLOCKS
  0
BLOCK
  8
0
  2
$MODEL_SPACE
 70
     0
 10
0.0
 20
0.0
 30
0.0
  3
$MODEL_SPACE
  1

  0
ENDBLK
  5
2ED
  8
0
  0
BLOCK
 67
     1
  8
0
  2
$PAPER_SPACE
 70
     0
 10
0.0
 20
0.0
 30
0.0
  3
$PAPER_SPACE
  1

  0
ENDBLK
  5
2E9
 67
     1
  8
0
  0
ENDSEC
  0
SECTION
  2
ENTITIES
  0
LINE
  5
2D
  8
HIBINO-BASE
  6
CONTINUOUS
 62
     7
 10
-260.0
 20
670.59544499999981
 30
0.0
 11
460.0
 21
670.59544499999981
 31
0.0
  0
LINE
  5
2E
  8
HIBINO-BASE
  6
CONTINUOUS
 62
     7
 10
460.0
 20
-369.40455500000002
 30
0.0
 11
-260.0
 21
-369.40455500000002
 31
0.0
  0
LINE
  5
2F
  8
HIBINO-BASE
  6
CONTINUOUS
 62
     7
 10
-260.0
 20
-369.40455500000002
 30
0.0
 11
-260.0
 21
670.59544499999981
 31
0.0
  0
TEXT
  5
30
  8
HIBINO-BASE
 62
     7
 10
-231.26400000000001
 20
-395.03926619999982
 30
0.0
 40
14.40017671875
  1
Hibino Corporation
 41
0.7
 11
-231.26400000000001
 21
-380.63908948124981
 31
0.0
 73
     3
  0
LINE
  5
31
  8
HIBINO-BASE
  6
CONTINUOUS
 62
     7
 10
460.0
 20
670.59544499999981
 30
0.0
 11
460.0
 21
-369.40455500000002
 31
0.0
  0
LINE
  5
32
  8
HIBINO-BASE
  6
CONTINUOUS
 62
     7
 10
100.0
 20
-279.40455500000002
 30
0.0
 11
460.0
 21
-279.40455500000002
 31
0.0
  0
LINE
  5
33
  8
HIBINO-BASE
  6
CONTINUOUS
 62
     7
 10
100.0
 20
-369.40455500000002
 30
0.0
 11
100.0
 21
-279.40455500000002
 31
0.0
  0
TEXT
  5
34
  8
HIBINO-BASE
 62
     7
 10
103.59999999999999
 20
-289.43932833333332
 30
0.0
 40
6.5153645833333318
  1
NOTE
 41
0.7
 11
103.59999999999999
 21
-282.92396374999998
 31
0.0
 73
     3
  0
LINE
  5
35
  8
HIBINO-BASE
  6
CONTINUOUS
 62
     7
 10
240.0
 20
-369.40455500000002
 30
0.0
 11
240.0
 21
-279.40455500000002
 31
0.0
  0
TEXT
  5
36
  8
HIBINO-BASE
 62
     7
 10
243.59999999999999
 20
-289.43932833333332
 30
0.0
 40
6.5153645833333318
  1
TITLE
 41
0.7
 11
243.59999999999999
 21
-282.92396374999998
 31
0.0
 73
     3
  0
TEXT
  5
37
  8
HIBINO-BASE
 62
     7
 10
300.27355999999997
 20
-395.03926619999982
 30
0.0
 40
14.40017671875
  1
ヒビノ株式会社
 41
0.7
 11
300.27355999999997
 21
-380.63908948124981
 31
0.0
 73
     3
  0
LINE
  5
38
  8
HIBINO-BASE
  6
CONTINUOUS
 62
     7
 10
100.0
 20
-329.40455500000002
 30
0.0
 11
460.0
 21
-329.40455500000002
 31
0.0
  0
TEXT
  5
39
  8
HIBINO-BASE
 62
     7
 10
293.60000000000002
 20
-339.21404833333332
 30
0.0
 40
6.5153645833333318
  1
DRAWN
 41
0.7
 11
293.60000000000002
 21
-332.69868374999999
 31
0.0
 73
     3
  0
TEXT
  5
3A
  8
HIBINO-BASE
 62
     7
 10
193.59999999999999
 20
-339.21404833333332
 30
0.0
 40
6.5153645833333318
  1
DATE
 41
0.7
 11
193.59999999999999
 21
-332.69868374999999
 31
0.0
 73
     3
  0
TEXT
  5
3B
  8
HIBINO-BASE
 62
     7
 10
153.59999999999991
 20
-339.21404833333332
 30
0.0
 40
6.5153645833333318
  1
SCALE
 41
0.7
 11
153.59999999999991
 21
-332.69868374999999
 31
0.0
 73
     3
  0
TEXT
  5
3C
  8
HIBINO-BASE
 62
     7
 10
243.59999999999999
 20
-339.21404833333332
 30
0.0
 40
6.5153645833333318
  1
DESIGN
 41
0.7
 11
243.59999999999999
 21
-332.69868374999999
 31
0.0
 73
     3
  0
TEXT
  5
3D
  8
HIBINO-BASE
 62
     7
 10
393.60000000000002
 20
-339.21404833333332
 30
0.0
 40
6.5153645833333318
  1
DRAWING NO.
 41
0.7
 11
393.60000000000002
 21
-332.69868374999999
 31
0.0
 73
     3
  0
TEXT
  5
3E
  8
HIBINO-BASE
 62
     7
 10
343.60000000000002
 20
-339.21404833333332
 30
0.0
 40
6.5153645833333318
  1
CHECK
 41
0.7
 11
343.60000000000002
 21
-332.69868374999999
 31
0.0
 73
     3
  0
LINE
  5
3F
  8
HIBINO-BASE
  6
CONTINUOUS
 62
     7
 10
157.5
 20
-364.40455500000002
 30
0.0
 11
172.5
 21
-349.40455500000002
 31
0.0
  0
TEXT
  5
40
  8
HIBINO-BASE
 62
     7
 10
155.0
 20
-353.84032833333328
 30
0.0
 40
6.5153645833333318
  1
1
 41
0.7
 11
155.0
 21
-347.32496374999999
 31
0.0
 73
     3
  0
LINE
  5
41
  8
HIBINO-BASE
  6
CONTINUOUS
 62
     7
 10
150.0
 20
-369.40455500000002
 30
0.0
 11
150.0
 21
-329.40455500000002
 31
0.0
  0
LINE
  5
42
  8
HIBINO-BASE
  6
CONTINUOUS
 62
     7
 10
190.0
 20
-369.40455500000002
 30
0.0
 11
190.0
 21
-329.40455500000002
 31
0.0
  0
LINE
  5
43
  8
HIBINO-BASE
  6
CONTINUOUS
 62
     7
 10
290.0
 20
-329.40455500000002
 30
0.0
 11
290.0
 21
-369.40455500000002
 31
0.0
  0
LINE
  5
44
  8
HIBINO-BASE
  6
CONTINUOUS
 62
     7
 10
390.0
 20
-329.40455500000002
 30
0.0
 11
390.0
 21
-369.40455500000002
 31
0.0
  0
LINE
  5
45
  8
HIBINO-BASE
  6
CONTINUOUS
 62
     7
 10
339.99999999999989
 20
-369.40455500000002
 30
0.0
 11
339.99999999999989
 21
-329.40455500000002
 31
0.0
  0
TEXT
  5
46
  8
HIBINO-BASE
 62
     7
 10
191.58431763460339
 20
-351.8718885275253
 30
0.0
 40
6.5153645833333318
  1
'12.04.
 41
0.7
 11
191.58431763460339
 21
-345.35652394419202
 31
0.0
 73
     3
  0
TEXT
  5
47
  8
HIBINO-BASE
 62
     7
 10
170.0
 20
-361.34032833333339
 30
0.0
 40
6.5153645833333318
  1
4
 41
0.7
 11
170.0
 21
-354.82496374999999
 31
0.0
 73
     3
  0
TEXT
  5
48
  8
HIBINO-BASE
 62
     7
 10
296.0232400441385
 20
-357.9499683333334
 30
0.0
 40
6.5153645833333318
  1
Ootake
 41
0.7
 11
296.0232400441385
 21
-351.43460375000001
 31
0.0
 73
     3
  0
TEXT
  5
49
  8
HIBINO-BASE
 62
     7
 10
115.5333333333334
 20
-361.50055500000002
 30
0.0
 40
13.03072916666666
  1
A4
 41
0.7
 11
115.5333333333334
 21
-348.46982583333329
 31
0.0
 73
     3
  0
TEXT
  5
4A
  8
HIBINO-BASE
 62
     7
 10
103.8333333333333
 20
-339.88237500000002
 30
0.0
 40
6.5153645833333318
  1
PAPER SIZE
 41
0.7
 11
103.8333333333333
 21
-333.36701041666657
 31
0.0
 73
     3
  0
TEXT
  5
4B
  8
HIBINO-BASE
 62
     7
 10
191.58431763460339
 20
-363.16117818330281
 30
0.0
 40
6.5153645833333318
  1
'12.07.修正
 41
0.7
 11
191.58431763460339
 21
-356.64581359996947
 31
0.0
 73
     3
  0
TEXT
  5
4C
  8
SPEC
 62
     7
 10
-225.0
 20
636.16852499999982
 30
0.0
 40
9.7730468750000004
  1
仕様
 41
0.7
 11
-225.0
 21
645.94157187499979
 31
0.0
 73
     3
  0
LINE
  5
4D
  8
SPEC
  6
CONTINUOUS
 62
     7
 10
-230.0
 20
630.59544500083928
 30
0.0
 11
360.0
 21
630.59544500083928
 31
0.0
  0
LINE
  5
4E
  8
SPEC
  6
CONTINUOUS
 62
     7
 10
-230.0
 20
615.59544500083837
 30
0.0
 11
360.0
 21
615.59544500083837
 31
0.0
  0
LINE
  5
4F
  8
SPEC
  6
CONTINUOUS
 62
     7
 10
-165.0
 20
555.59544500083803
 30
0.0
 11
360.0
 21
555.59544500083803
 31
0.0
  0
LINE
  5
50
  8
SPEC
  6
CONTINUOUS
 62
     7
 10
-100.0
 20
570.59544500083803
 30
0.0
 11
360.0
 21
570.59544500083803
 31
0.0
  0
LINE
  5
51
  8
SPEC
  6
CONTINUOUS
 62
     7
 10
-100.0
 20
585.59544500083803
 30
0.0
 11
360.0
 21
585.59544500083803
 31
0.0
  0
LINE
  5
52
  8
SPEC
  6
CONTINUOUS
 62
     7
 10
-100.0
 20
540.59544500083803
 30
0.0
 11
360.0
 21
540.59544500083803
 31
0.0
  0
LINE
  5
53
  8
SPEC
  6
CONTINUOUS
 62
     7
 10
-100.0
 20
510.59544500083803
 30
0.0
 11
360.0
 21
510.59544500083803
 31
0.0
  0
LINE
  5
54
  8
SPEC
  6
CONTINUOUS
 62
     7
 10
-100.0
 20
525.59544500083803
 30
0.0
 11
360.0
 21
525.59544500083803
 31
0.0
  0
LINE
  5
55
  8
SPEC
  6
CONTINUOUS
 62
     7
 10
-230.0
 20
495.59544500083803
 30
0.0
 11
360.0
 21
495.59544500083803
 31
0.0
  0
LINE
  5
56
  8
SPEC
  6
CONTINUOUS
 62
     7
 10
-230.0
 20
480.59544500083803
 30
0.0
 11
360.0
 21
480.59544500083803
 31
0.0
  0
LINE
  5
57
  8
SPEC
  6
CONTINUOUS
 62
     7
 10
-100.0
 20
600.59544500083803
 30
0.0
 11
360.0
 21
600.59544500083803
 31
0.0
  0
TEXT
  5
58
  8
SPEC
 62
     7
 10
-97.400000000000006
 20
618.83541830424144
 30
0.0
 40
7.6012449999999978
  1
ワイヤレス受信機
 41
0.7
 11
-97.400000000000006
 21
626.43666330424128
 31
0.0
 73
     3
  0
LINE
  5
59
  8
SPEC
  6
CONTINUOUS
 62
     7
 10
-230.0
 20
630.59544500083928
 30
0.0
 11
-230.0
 21
285.59544500083979
 31
0.0
  0
LINE
  5
5A
  8
SPEC
  6
CONTINUOUS
 62
     7
 10
-100.0
 20
630.59544500083928
 30
0.0
 11
-100.0
 21
285.59544500083979
 31
0.0
  0
LINE
  5
5B
  8
SPEC
  6
CONTINUOUS
 62
     7
 10
360.0
 20
630.59544500083928
 30
0.0
 11
360.0
 21
285.59544500083979
 31
0.0
  0
TEXT
  5
5C
  8
SPEC
 62
     7
 10
-96.443348030152151
 20
363.9097285761722
 30
0.0
 40
7.6012449999999978
  1
20～20、000Hz
 41
0.7
 11
-96.443348030152151
 21
371.5109735761722
 31
0.0
 73
     3
  0
TEXT
  5
5D
  8
SPEC
 62
     7
 10
-96.589510291886782
 20
379.07709021452462
 30
0.0
 40
7.6012449999999978
  1
約30m
 41
0.7
 11
-96.589510291886782
 21
386.67833521452462
 31
0.0
 73
     3
  0
TEXT
  5
5E
  8
SPEC
 62
     7
 10
-227.19156775210399
 20
439.61271415534378
 30
0.0
 40
7.6012449999999978
  1
ダイバーシティ方式
 41
0.7
 11
-227.19156775210399
 21
447.21395915534379
 31
0.0
 73
     3
  0
TEXT
  5
5F
  8
SPEC
 62
     7
 10
-226.65459890764259
 20
619.43576022851676
 30
0.0
 40
7.6012449999999978
  1
形式
 41
0.7
 11
-226.65459890764259
 21
627.0370052285167
 31
0.0
 73
     3
  0
TEXT
  5
60
  8
SPEC
 62
     7
 10
-226.6480067858337
 20
334.40160250027259
 30
0.0
 40
7.6012449999999978
  1
電源供給方法
 41
0.7
 11
-226.6480067858337
 21
342.00284750027271
 31
0.0
 73
     3
  0
TEXT
  5
61
  8
SPEC
 62
     7
 10
-226.37075756410781
 20
409.68432863600782
 30
0.0
 40
7.6012449999999978
  1
使用チヤンネル選択方式
 41
0.7
 11
-226.37075756410781
 21
417.28557363600783
 31
0.0
 73
     3
  0
TEXT
  5
62
  8
SPEC
 62
     7
 10
-226.52189667928451
 20
394.06589322159891
 30
0.0
 40
7.6012449999999978
  1
各チャネルの帯域幅
 41
0.7
 11
-226.52189667928451
 21
401.66713822159892
 31
0.0
 73
     3
  0
TEXT
  5
63
  8
SPEC
 62
     7
 10
-226.65860895943439
 20
454.69809527867648
 30
0.0
 40
7.6012449999999978
  1
暗号化
 41
0.7
 11
-226.65860895943439
 21
462.29934027867648
 31
0.0
 73
     3
  0
TEXT
  5
64
  8
SPEC
 62
     7
 10
-226.58348264229329
 20
424.74257297245418
 30
0.0
 40
7.6012449999999978
  1
送信周波数
 41
0.7
 11
-226.58348264229329
 21
432.3438179724543
 31
0.0
 73
     3
  0
TEXT
  5
65
  8
SPEC
 62
     7
 10
-226.2886729428883
 20
484.41416582805101
 30
0.0
 40
7.6012449999999978
  1
使用周波数帯域
 41
0.7
 11
-226.2886729428883
 21
492.01541082805102
 31
0.0
 73
     3
  0
TEXT
  5
66
  8
SPEC
 62
     7
 10
-226.79287356070719
 20
469.5636603781569
 30
0.0
 40
7.6012449999999978
  1
変調方式
 41
0.7
 11
-226.79287356070719
 21
477.1649053781569
 31
0.0
 73
     3
  0
TEXT
  5
67
  8
SPEC
 62
     7
 10
-226.47927730503781
 20
379.31187024640479
 30
0.0
 40
7.6012449999999978
  1
到達距離
 41
0.7
 11
-226.47927730503781
 21
386.9131152464048
 31
0.0
 73
     3
  0
TEXT
  5
68
  8
SPEC
 62
     7
 10
-226.2980481344344
 20
364.37587374530358
 30
0.0
 40
7.6012449999999978
  1
周波数特性
 41
0.7
 11
-226.2980481344344
 21
371.97711874530359
 31
0.0
 73
     3
  0
TEXT
  5
69
  8
SPEC
 62
     7
 10
-96.876074138696623
 20
439.14215158423082
 30
0.0
 40
7.6012449999999978
  1
デジタルダイバーシティ
 41
0.7
 11
-96.876074138696623
 21
446.74339658423082
 31
0.0
 73
     3
  0
TEXT
  5
6A
  8
SPEC
 62
     7
 10
-96.396841604773059
 20
409.41271936945691
 30
0.0
 40
7.6012449999999978
  1
DFS(動的周波数選択)
 41
0.7
 11
-96.396841604773059
 21
417.01396436945691
 31
0.0
 73
     3
  0
TEXT
  5
6B
  8
SPEC
 62
     7
 10
-97.029681148851225
 20
393.91782735715611
 30
0.0
 40
7.6012449999999978
  1
16MHz
 41
0.7
 11
-97.029681148851225
 21
401.51907235715601
 31
0.0
 73
     3
  0
TEXT
  5
6C
  8
SPEC
 62
     7
 10
-96.31633504775948
 20
349.22726058088722
 30
0.0
 40
7.6012449999999978
  1
50\U+03A9
 41
0.7
 11
-96.31633504775948
 21
356.82850558088722
 31
0.0
 73
     3
  0
TEXT
  5
6D
  8
SPEC
 62
     7
 10
-96.884196455395681
 20
454.03006693906917
 30
0.0
 40
7.6012449999999978
  1
128bit、AES
 41
0.7
 11
-96.884196455395681
 21
461.63131193906918
 31
0.0
 73
     3
  0
TEXT
  5
6E
  8
SPEC
 62
     7
 10
-96.441308274765447
 20
424.09608663449319
 30
0.0
 40
7.6012449999999978
  1
2412MHz、2438MHz、2462MHz
 41
0.7
 11
-96.441308274765447
 21
431.6973316344932
 31
0.0
 73
     3
  0
TEXT
  5
6F
  8
SPEC
 62
     7
 10
-96.249285181061083
 20
469.09931808955321
 30
0.0
 40
7.6012449999999978
  1
OFDM
 41
0.7
 11
-96.249285181061083
 21
476.70056308955321
 31
0.0
 73
     3
  0
TEXT
  5
70
  8
SPEC
 62
     7
 10
-96.299915714329927
 20
483.85865832167218
 30
0.0
 40
7.6012449999999978
  1
2.4GHz ISM
 41
0.7
 11
-96.299915714329927
 21
491.45990332167207
 31
0.0
 73
     3
  0
LINE
  5
71
  8
SPEC
  6
CONTINUOUS
 62
     7
 10
-230.0
 20
465.59544500083803
 30
0.0
 11
360.0
 21
465.59544500083803
 31
0.0
  0
LINE
  5
72
  8
SPEC
  6
CONTINUOUS
 62
     7
 10
-230.0
 20
450.59544500083803
 30
0.0
 11
360.0
 21
450.59544500083803
 31
0.0
  0
LINE
  5
73
  8
SPEC
  6
CONTINUOUS
 62
     7
 10
-230.0
 20
435.59544500083803
 30
0.0
 11
360.0
 21
435.59544500083803
 31
0.0
  0
LINE
  5
74
  8
SPEC
  6
CONTINUOUS
 62
     7
 10
-230.0
 20
420.59544500083803
 30
0.0
 11
360.0
 21
420.59544500083803
 31
0.0
  0
LINE
  5
75
  8
SPEC
  6
CONTINUOUS
 62
     7
 10
-230.0
 20
405.59544500083842
 30
0.0
 11
360.0
 21
405.59544500083842
 31
0.0
  0
TEXT
  5
76
  8
SPEC
 62
     7
 10
-226.81814631928279
 20
349.35913166245223
 30
0.0
 40
7.6012449999999978
  1
アンテナ
 41
0.7
 11
-226.81814631928279
 21
356.96037666245218
 31
0.0
 73
     3
  0
TEXT
  5
77
  8
SPEC
 62
     7
 10
-96.157343033105491
 20
334.18801738750142
 30
0.0
 40
7.6012449999999978
  1
ACアダプター
 41
0.7
 11
-96.157343033105491
 21
341.78926238750142
 31
0.0
 73
     3
  0
TEXT
  5
78
  8
SPEC
 62
     7
 10
-226.491480595653
 20
319.43165191127667
 30
0.0
 40
7.6012449999999978
  1
外装
 41
0.7
 11
-226.491480595653
 21
327.03289691127668
 31
0.0
 73
     3
  0
TEXT
  5
79
  8
SPEC
 62
     7
 10
-96.659561334104907
 20
319.4648345884022
 30
0.0
 40
7.6012449999999978
  1
黒
 41
0.7
 11
-96.659561334104907
 21
327.0660795884022
 31
0.0
 73
     3
  0
TEXT
  5
7A
  8
SPEC
 62
     7
 10
-226.75224606384381
 20
304.44587248785223
 30
0.0
 40
7.6012586805555546
  1
寸法
 41
0.7
 11
-226.75224606384381
 21
312.04713116840782
 31
0.0
 73
     3
  0
TEXT
  5
7B
  8
SPEC
 62
     7
 10
-96.327668898329435
 20
304.13521038068677
 30
0.0
 40
7.6012586805555546
  1
299(W)\U+00D743(H)\U+00D7133.5(D)mm(突起部含まず）
 41
0.7
 11
-96.327668898329435
 21
311.7364690612423
 31
0.0
 73
     3
  0
TEXT
  5
7C
  8
SPEC
 62
     7
 10
-96.560501576580137
 20
289.78082298917042
 30
0.0
 40
7.6012586805555546
  1
約1.3kg
 41
0.7
 11
-96.560501576580137
 21
297.38208166972589
 31
0.0
 73
     3
  0
TEXT
  5
7D
  8
SPEC
 62
     7
 10
-226.70885478078441
 20
289.4685584757421
 30
0.0
 40
7.6012586805555546
  1
重量
 41
0.7
 11
-226.70885478078441
 21
297.06981715629769
 31
0.0
 73
     3
  0
TEXT
  5
7E
  8
SPEC
 62
     7
 10
-226.4151863716356
 20
551.95726648137781
 30
0.0
 40
7.6012449999999978
  1
音声出力
 41
0.7
 11
-226.4151863716356
 21
559.55851148137765
 31
0.0
 73
     3
  0
TEXT
  5
7F
  8
SPEC
 62
     7
 10
-161.79287603936561
 20
581.42235996423312
 30
0.0
 40
7.6012449999999978
  1
チャンネル
 41
0.7
 11
-161.79287603936561
 21
589.02360496423296
 31
0.0
 73
     3
  0
TEXT
  5
80
  8
SPEC
 62
     7
 10
-97.076623413197225
 20
604.12412090532246
 30
0.0
 40
7.6012449999999978
  1
出力数：4
 41
0.7
 11
-97.076623413197225
 21
611.72536590532252
 31
0.0
 73
     3
  0
TEXT
  5
81
  8
SPEC
 62
     7
 10
-96.832379620628927
 20
589.04756529750955
 30
0.0
 40
7.6012449999999978
  1
形式：標準フォーン(3P)、電子バランス
 41
0.7
 11
-96.832379620628927
 21
596.64881029750961
 31
0.0
 73
     3
  0
TEXT
  5
82
  8
SPEC
 62
     7
 10
-96.834372273565592
 20
573.92374173206156
 30
0.0
 40
7.6012449999999978
  1
インピーダンス：800\U+03A9
 41
0.7
 11
-96.834372273565592
 21
581.52498673206151
 31
0.0
 73
     3
  0
TEXT
  5
83
  8
SPEC
 62
     7
 10
-96.295821927261073
 20
559.16685096175706
 30
0.0
 40
7.6012449999999978
  1
最大出力レベル：+5.1dBu
 41
0.7
 11
-96.295821927261073
 21
566.76809596175713
 31
0.0
 73
     3
  0
LINE
  5
84
  8
SPEC
  6
CONTINUOUS
 62
     7
 10
-230.0
 20
390.59544500083882
 30
0.0
 11
360.0
 21
390.59544500083882
 31
0.0
  0
LINE
  5
85
  8
SPEC
  6
CONTINUOUS
 62
     7
 10
-230.0
 20
375.59544500083922
 30
0.0
 11
360.0
 21
375.59544500083922
 31
0.0
  0
LINE
  5
86
  8
SPEC
  6
CONTINUOUS
 62
     7
 10
-230.0
 20
360.59544500083962
 30
0.0
 11
360.0
 21
360.59544500083962
 31
0.0
  0
LINE
  5
87
  8
SPEC
  6
CONTINUOUS
 62
     7
 10
-230.0
 20
345.5954450008399
 30
0.0
 11
360.0
 21
345.5954450008399
 31
0.0
  0
LINE
  5
88
  8
SPEC
  6
CONTINUOUS
 62
     7
 10
-165.0
 20
495.59544500083803
 30
0.0
 11
-165.0
 21
615.22980307643934
 31
0.0
  0
LINE
  5
89
  8
SPEC
  6
CONTINUOUS
 62
     7
 10
-230.0
 20
330.59544500083979
 30
0.0
 11
360.0
 21
330.59544500083979
 31
0.0
  0
LINE
  5
8A
  8
SPEC
  6
CONTINUOUS
 62
     7
 10
-230.0
 20
315.59544500083979
 30
0.0
 11
360.0
 21
315.59544500083979
 31
0.0
  0
LINE
  5
8B
  8
SPEC
  6
CONTINUOUS
 62
     7
 10
-230.0
 20
300.59544500083979
 30
0.0
 11
360.0
 21
300.59544500083979
 31
0.0
  0
LINE
  5
8C
  8
SPEC
  6
CONTINUOUS
 62
     7
 10
-230.0
 20
285.59544500083979
 30
0.0
 11
360.0
 21
285.59544500083979
 31
0.0
  0
TEXT
  5
8D
  8
SPEC
 62
     7
 10
-161.79287603936561
 20
522.69630193730995
 30
0.0
 40
7.6012449999999978
  1
ミックス
 41
0.7
 11
-161.79287603936561
 21
530.29754693731002
 31
0.0
 73
     3
  0
TEXT
  5
8E
  8
SPEC
 62
     7
 10
-97.076623413197225
 20
544.17581653891523
 30
0.0
 40
7.6012449999999978
  1
出力数：1
 41
0.7
 11
-97.076623413197225
 21
551.77706153891506
 31
0.0
 73
     3
  0
TEXT
  5
8F
  8
SPEC
 62
     7
 10
-96.832379620628927
 20
528.97117519084964
 30
0.0
 40
7.6012449999999978
  1
形式：XLR、電子バランス
 41
0.7
 11
-96.832379620628927
 21
536.57242019084958
 31
0.0
 73
     3
  0
TEXT
  5
90
  8
SPEC
 62
     7
 10
-96.834372273565592
 20
513.92506863574602
 30
0.0
 40
7.6012449999999978
  1
インピーダンス：800\U+03A9
 41
0.7
 11
-96.834372273565592
 21
521.52631363574585
 31
0.0
 73
     3
  0
TEXT
  5
91
  8
SPEC
 62
     7
 10
-96.295821927261073
 20
499.4079798282923
 30
0.0
 40
7.6012449999999978
  1
最大出力レベル：+5.1dBu
 41
0.7
 11
-96.295821927261073
 21
507.0092248282923
 31
0.0
 73
     3
  0
TEXT
  5
92
  8
DIMNSIONS
 62
     7
 10
19.999999999999979
 20
-320.326595
 30
0.0
 40
9.7730468750000004
  1
(単位：mm)
 41
0.7
 11
19.999999999999979
 21
-310.55354812500002
 31
0.0
 73
     3
  0
LINE
  5
93
  8
DIMNSIONS
  6
CONTINUOUS
 62
     7
 10
-145.5
 20
-162.5
 30
0.0
 11
-183.0
 21
-162.5
 31
0.0
  0
LINE
  5
94
  8
DIMNSIONS
  6
CONTINUOUS
 62
     7
 10
-145.5
 20
-119.5
 30
0.0
 11
-183.0
 21
-119.5
 31
0.0
  0
LINE
  5
95
  8
DIMNSIONS
  6
CONTINUOUS
 62
     7
 10
-175.0
 20
-162.5
 30
0.0
 11
-175.0
 21
-119.5
 31
0.0
  0
LINE
  5
96
  8
DIMNSIONS
  6
CONTINUOUS
 62
     7
 10
-175.0
 20
-162.5
 30
0.0
 11
-177.68015918060101
 21
-152.49750976562501
 31
0.0
  0
LINE
  5
97
  8
DIMNSIONS
  6
CONTINUOUS
 62
     7
 10
-175.0
 20
-162.5
 30
0.0
 11
-172.31984081939899
 21
-152.49750976562501
 31
0.0
  0
LINE
  5
98
  8
DIMNSIONS
  6
CONTINUOUS
 62
     7
 10
-175.0
 20
-119.5
 30
0.0
 11
-172.31984081939899
 21
-129.50249023437499
 31
0.0
  0
LINE
  5
99
  8
DIMNSIONS
  6
CONTINUOUS
 62
     7
 10
-175.0
 20
-119.5
 30
0.0
 11
-177.68015918060101
 21
-129.50249023437499
 31
0.0
  0
TEXT
  5
9A
  8
DIMNSIONS
 62
     7
 10
-178.9755555555555
 20
-148.05555555555549
 30
0.0
 40
10.85894097222222
  1
43
 50
90.0
 41
0.7
 11
-189.8344965277777
 21
-148.05555555555549
 31
0.0
 73
     3
  0
LINE
  5
9B
  8
DIMNSIONS
  6
CONTINUOUS
 62
     7
 10
-137.5
 20
-170.5
 30
0.0
 11
-137.5
 21
-208.0
 31
0.0
  0
LINE
  5
9C
  8
DIMNSIONS
  6
CONTINUOUS
 62
     7
 10
161.5
 20
-170.5
 30
0.0
 11
161.5
 21
-208.0
 31
0.0
  0
LINE
  5
9D
  8
DIMNSIONS
  6
CONTINUOUS
 62
     7
 10
-137.5
 20
-200.0
 30
0.0
 11
161.5
 21
-200.0
 31
0.0
  0
LINE
  5
9E
  8
DIMNSIONS
  6
CONTINUOUS
 62
     7
 10
-137.5
 20
-200.0
 30
0.0
 11
-127.497509765625
 21
-197.31984081939899
 31
0.0
  0
LINE
  5
9F
  8
DIMNSIONS
  6
CONTINUOUS
 62
     7
 10
-137.5
 20
-200.0
 30
0.0
 11
-127.497509765625
 21
-202.68015918060101
 31
0.0
  0
LINE
  5
A0
  8
DIMNSIONS
  6
CONTINUOUS
 62
     7
 10
161.5
 20
-200.0
 30
0.0
 11
151.4975097656249
 21
-202.68015918060101
 31
0.0
  0
LINE
  5
A1
  8
DIMNSIONS
  6
CONTINUOUS
 62
     7
 10
161.5
 20
-200.0
 30
0.0
 11
151.4975097656249
 21
-197.31984081939899
 31
0.0
  0
TEXT
  5
A2
  8
DIMNSIONS
 62
     7
 10
1.4166666666666561
 20
-196.0244444444445
 30
0.0
 40
10.85894097222222
  1
299
 41
0.7
 11
1.416666666666657
 21
-185.1655034722223
 31
0.0
 73
     3
  0
LINE
  5
A3
  8
DIMNSIONS
  6
CONTINUOUS
 62
     7
 10
-106.90000000000001
 20
-164.5
 30
0.0
 11
-183.0
 21
-164.5
 31
0.0
  0
LINE
  5
A4
  8
DIMNSIONS
  6
CONTINUOUS
 62
     7
 10
-145.5
 20
-162.5
 30
0.0
 11
-183.0
 21
-162.5
 31
0.0
  0
LINE
  5
A5
  8
DIMNSIONS
  6
CONTINUOUS
 62
     7
 10
-175.0
 20
-162.5
 30
0.0
 11
-175.0
 21
-164.5
 31
0.0
  0
LINE
  5
A6
  8
DIMNSIONS
  6
CONTINUOUS
 62
     7
 10
-175.0
 20
-164.5
 30
0.0
 11
-175.0
 21
-182.05555555555549
 31
0.0
  0
LINE
  5
A7
  8
DIMNSIONS
  6
CONTINUOUS
 62
     7
 10
-175.0
 20
-164.5
 30
0.0
 11
-172.31984081939899
 21
-174.50249023437499
 31
0.0
  0
LINE
  5
A8
  8
DIMNSIONS
  6
CONTINUOUS
 62
     7
 10
-175.0
 20
-164.5
 30
0.0
 11
-177.68015918060101
 21
-174.50249023437499
 31
0.0
  0
LINE
  5
A9
  8
DIMNSIONS
  6
CONTINUOUS
 62
     7
 10
-175.0
 20
-162.5
 30
0.0
 11
-175.0
 21
-142.5
 31
0.0
  0
LINE
  5
AA
  8
DIMNSIONS
  6
CONTINUOUS
 62
     7
 10
-175.0
 20
-162.5
 30
0.0
 11
-177.68015918060101
 21
-152.49750976562501
 31
0.0
  0
LINE
  5
AB
  8
DIMNSIONS
  6
CONTINUOUS
 62
     7
 10
-175.0
 20
-162.5
 30
0.0
 11
-172.31984081939899
 21
-152.49750976562501
 31
0.0
  0
TEXT
  5
AC
  8
DIMNSIONS
 62
     7
 10
-178.9755555555555
 20
-182.05555555555549
 30
0.0
 40
10.85894097222222
  1
2
 50
90.0
 41
0.7
 11
-189.8344965277777
 21
-182.05555555555549
 31
0.0
 73
     3
  0
LINE
  5
AD
  8
DIMNSIONS
  6
CONTINUOUS
 62
     7
 10
-145.5
 20
-25.0
 30
0.0
 11
-183.0
 21
-25.0
 31
0.0
  0
LINE
  5
AE
  8
DIMNSIONS
  6
CONTINUOUS
 62
     7
 10
-145.5
 20
108.5
 30
0.0
 11
-183.0
 21
108.5
 31
0.0
  0
LINE
  5
AF
  8
DIMNSIONS
  6
CONTINUOUS
 62
     7
 10
-175.0
 20
-25.0
 30
0.0
 11
-175.0
 21
108.5
 31
0.0
  0
LINE
  5
B0
  8
DIMNSIONS
  6
CONTINUOUS
 62
     7
 10
-175.0
 20
-25.0
 30
0.0
 11
-177.68015918060101
 21
-14.99750976562501
 31
0.0
  0
LINE
  5
B1
  8
DIMNSIONS
  6
CONTINUOUS
 62
     7
 10
-175.0
 20
-25.0
 30
0.0
 11
-172.31984081939899
 21
-14.99750976562501
 31
0.0
  0
LINE
  5
B2
  8
DIMNSIONS
  6
CONTINUOUS
 62
     7
 10
-175.0
 20
108.5
 30
0.0
 11
-172.31984081939899
 21
98.497509765624997
 31
0.0
  0
LINE
  5
B3
  8
DIMNSIONS
  6
CONTINUOUS
 62
     7
 10
-175.0
 20
108.5
 30
0.0
 11
-177.68015918060101
 21
98.497509765624997
 31
0.0
  0
TEXT
  5
B4
  8
DIMNSIONS
 62
     7
 10
-178.9755555555555
 20
24.111111111111111
 30
0.0
 40
10.85894097222222
  1
133.5
 50
90.0
 41
0.7
 11
-189.8344965277777
 21
24.111111111111111
 31
0.0
 73
     3
  0
LINE
  5
B5
  8
DIMNSIONS
  6
CONTINUOUS
 62
     7
 10
-145.5
 20
108.5
 30
0.0
 11
-183.0
 21
108.5
 31
0.0
  0
LINE
  5
B6
  8
DIMNSIONS
  6
CONTINUOUS
 62
     7
 10
-117.5
 20
121.0
 30
0.0
 11
-183.0
 21
121.0
 31
0.0
  0
LINE
  5
B7
  8
DIMNSIONS
  6
CONTINUOUS
 62
     7
 10
-175.0
 20
121.0
 30
0.0
 11
-175.0
 21
108.5
 31
0.0
  0
LINE
  5
B8
  8
DIMNSIONS
  6
CONTINUOUS
 62
     7
 10
-175.0
 20
108.5
 30
0.0
 11
-175.0
 21
88.499999999999986
 31
0.0
  0
LINE
  5
B9
  8
DIMNSIONS
  6
CONTINUOUS
 62
     7
 10
-175.0
 20
108.5
 30
0.0
 11
-172.31984081939899
 21
98.497509765624997
 31
0.0
  0
LINE
  5
BA
  8
DIMNSIONS
  6
CONTINUOUS
 62
     7
 10
-175.0
 20
108.5
 30
0.0
 11
-177.68015918060101
 21
98.497509765624997
 31
0.0
  0
LINE
  5
BB
  8
DIMNSIONS
  6
CONTINUOUS
 62
     7
 10
-175.0
 20
121.0
 30
0.0
 11
-175.0
 21
165.7222222222222
 31
0.0
  0
LINE
  5
BC
  8
DIMNSIONS
  6
CONTINUOUS
 62
     7
 10
-175.0
 20
121.0
 30
0.0
 11
-177.68015918060101
 21
131.00249023437499
 31
0.0
  0
LINE
  5
BD
  8
DIMNSIONS
  6
CONTINUOUS
 62
     7
 10
-175.0
 20
121.0
 30
0.0
 11
-172.31984081939899
 21
131.00249023437499
 31
0.0
  0
TEXT
  5
BE
  8
DIMNSIONS
 62
     7
 10
-178.9755555555555
 20
137.5
 30
0.0
 40
10.85894097222222
  1
12.5
 50
90.0
 41
0.7
 11
-189.8344965277777
 21
137.5
 31
0.0
 73
     3
  0
LINE
  5
BF
  8
DIMNSIONS
  6
CONTINUOUS
 62
     7
 10
-145.5
 20
-25.0
 30
0.0
 11
-183.0
 21
-25.0
 31
0.0
  0
LINE
  5
C0
  8
DIMNSIONS
  6
CONTINUOUS
 62
     7
 10
76.536885661613439
 20
-37.516795098317452
 30
0.0
 11
-183.0
 21
-37.516795098317452
 31
0.0
  0
LINE
  5
C1
  8
DIMNSIONS
  6
CONTINUOUS
 62
     7
 10
-175.0
 20
-37.516795098317452
 30
0.0
 11
-175.0
 21
-25.0
 31
0.0
  0
LINE
  5
C2
  8
DIMNSIONS
  6
CONTINUOUS
 62
     7
 10
-175.0
 20
-25.0
 30
0.0
 11
-175.0
 21
-5.0
 31
0.0
  0
LINE
  5
C3
  8
DIMNSIONS
  6
CONTINUOUS
 62
     7
 10
-175.0
 20
-25.0
 30
0.0
 11
-177.68015918060101
 21
-14.99750976562501
 31
0.0
  0
LINE
  5
C4
  8
DIMNSIONS
  6
CONTINUOUS
 62
     7
 10
-175.0
 20
-25.0
 30
0.0
 11
-172.31984081939899
 21
-14.99750976562501
 31
0.0
  0
LINE
  5
C5
  8
DIMNSIONS
  6
CONTINUOUS
 62
     7
 10
-175.0
 20
-37.516795098317452
 30
0.0
 11
-175.0
 21
-78.222222222222214
 31
0.0
  0
LINE
  5
C6
  8
DIMNSIONS
  6
CONTINUOUS
 62
     7
 10
-175.0
 20
-37.516795098317452
 30
0.0
 11
-172.31984081939899
 21
-47.519285332692462
 31
0.0
  0
LINE
  5
C7
  8
DIMNSIONS
  6
CONTINUOUS
 62
     7
 10
-175.0
 20
-37.516795098317452
 30
0.0
 11
-177.68015918060101
 21
-47.519285332692462
 31
0.0
  0
TEXT
  5
C8
  8
DIMNSIONS
 62
     7
 10
-178.9755555555555
 20
-78.2222222222222
 30
0.0
 40
10.85894097222222
  1
12.5
 50
90.0
 41
0.7
 11
-189.8344965277777
 21
-78.2222222222222
 31
0.0
 73
     3
  0
TEXT
  5
C9
  8
DATA
 62
     7
 10
300.0
 20
-324.68003515920179
 30
0.0
 40
9.7730468750000004
  1
DSR70 QUATTRO
 41
0.7
 11
300.0
 21
-314.90698828420182
 31
0.0
 73
     3
  0
TEXT
  5
CA
  8
DATA
 62
     7
 10
300.0
 20
-295.88099499999993
 30
0.0
 40
9.7730468750000004
  1
AKG
 41
0.7
 11
300.0
 21
-286.10794812500001
 31
0.0
 73
     3
  0
TEXT
  5
CB
  8
DATA
 62
     7
 10
291.1588906547351
 20
-309.09717745471988
 30
0.0
 40
6.5153748437499992
  1
ワイヤレス受信機
 41
0.7
 11
291.1588906547351
 21
-302.58180261096987
 31
0.0
 73
     3
  0
TEXT
  5
CC
  8
DATA
 62
     7
 10
-220.0
 20
-352.45255500000007
 30
0.0
 40
6.5153645833333318
  1
仕様および外観は予告なく変更されることがありますので、ご了承ください。
 41
0.7
 11
-220.0
 21
-345.93719041666668
 31
0.0
 73
     3
  0
LINE
  5
CD
  8
DATA
  6
CONTINUOUS
 62
     7
 10
-137.5
 20
-162.5
 30
0.0
 11
-137.5
 21
-121.0
 31
0.0
  0
LINE
  5
CE
  8
DATA
  6
CONTINUOUS
 62
     7
 10
161.5
 20
-162.5
 30
0.0
 11
-137.5
 21
-162.5
 31
0.0
  0
LINE
  5
CF
  8
DATA
  6
CONTINUOUS
 62
     7
 10
161.5
 20
-121.0
 30
0.0
 11
161.5
 21
-162.5
 31
0.0
  0
LINE
  5
D0
  8
DATA
  6
CONTINUOUS
 62
     7
 10
-136.0
 20
-119.5
 30
0.0
 11
62.579082505494931
 21
-119.5
 31
0.0
  0
LINE
  5
D1
  8
DATA
  6
CONTINUOUS
 62
     7
 10
72.075067074952344
 20
-119.5
 30
0.0
 11
141.92493292504761
 21
-119.5
 31
0.0
  0
LINE
  5
D2
  8
DATA
  6
CONTINUOUS
 62
     7
 10
151.42091749450501
 20
-119.5
 30
0.0
 11
160.0
 21
-119.5
 31
0.0
  0
LINE
  5
D3
  8
DATA
  6
CONTINUOUS
 62
     7
 10
-137.5
 20
-25.0
 30
0.0
 11
-137.5
 21
108.5
 31
0.0
  0
LINE
  5
D4
  8
DATA
  6
CONTINUOUS
 62
     7
 10
161.5
 20
-25.0
 30
0.0
 11
-137.5
 21
-25.0
 31
0.0
  0
LINE
  5
D5
  8
DATA
  6
CONTINUOUS
 62
     7
 10
161.5
 20
108.5
 30
0.0
 11
161.5
 21
-25.0
 31
0.0
  0
LINE
  5
D6
  8
DATA
  6
CONTINUOUS
 62
     7
 10
-137.5
 20
108.5
 30
0.0
 11
161.5
 21
108.5
 31
0.0
  0
LINE
  5
D7
  8
DATA
  6
CONTINUOUS
 62
     7
 10
-98.900000000000006
 20
-164.5
 30
0.0
 11
-89.100000000000037
 21
-164.5
 31
0.0
  0
LINE
  5
D8
  8
DATA
  6
CONTINUOUS
 62
     7
 10
-98.900000000000006
 20
-164.5
 30
0.0
 11
-99.667123287671245
 21
-162.5
 31
0.0
  0
LINE
  5
D9
  8
DATA
  6
CONTINUOUS
 62
     7
 10
-89.100000000000037
 20
-164.5
 30
0.0
 11
-88.332876712328783
 21
-162.5
 31
0.0
  0
LINE
  5
DA
  8
DATA
  6
CONTINUOUS
 62
     7
 10
122.89999999999991
 20
-164.5
 30
0.0
 11
113.09999999999999
 21
-164.5
 31
0.0
  0
LINE
  5
DB
  8
DATA
  6
CONTINUOUS
 62
     7
 10
122.89999999999991
 20
-164.5
 30
0.0
 11
123.6671232876712
 21
-162.5
 31
0.0
  0
LINE
  5
DC
  8
DATA
  6
CONTINUOUS
 62
     7
 10
113.09999999999999
 20
-164.5
 30
0.0
 11
112.3328767123287
 21
-162.5
 31
0.0
  0
LINE
  5
DD
  8
DATA
  6
CONTINUOUS
 62
     7
 10
-127.0
 20
-152.4676970880306
 30
0.0
 11
-127.0
 21
-142.56769708803051
 31
0.0
  0
LINE
  5
DE
  8
DATA
  6
CONTINUOUS
 62
     7
 10
-111.0
 20
-152.4676970880306
 30
0.0
 11
-127.0
 21
-152.4676970880306
 31
0.0
  0
LINE
  5
DF
  8
DATA
  6
CONTINUOUS
 62
     7
 10
-111.0
 20
-142.56769708803051
 30
0.0
 11
-111.0
 21
-152.4676970880306
 31
0.0
  0
LINE
  5
E0
  8
DATA
  6
CONTINUOUS
 62
     7
 10
-127.0
 20
-142.56769708803051
 30
0.0
 11
-111.0
 21
-142.56769708803051
 31
0.0
  0
LINE
  5
E1
  8
DATA
  6
CONTINUOUS
 62
     7
 10
-129.0
 20
-153.0176970880305
 30
0.0
 11
-129.0
 21
-142.0176970880305
 31
0.0
  0
ARC
  5
E2
  8
DATA
  6
CONTINUOUS
 62
     7
 10
-127.5
 20
-153.0176970880305
 30
0.0
 40
1.5
 50
180.0
 51
270.0
  0
LINE
  5
E3
  8
DATA
  6
CONTINUOUS
 62
     7
 10
-110.5
 20
-154.5176970880305
 30
0.0
 11
-127.5
 21
-154.5176970880305
 31
0.0
  0
ARC
  5
E4
  8
DATA
  6
CONTINUOUS
 62
     7
 10
-110.5
 20
-153.0176970880305
 30
0.0
 40
1.5
 50
270.0
 51
0.0
  0
LINE
  5
E5
  8
DATA
  6
CONTINUOUS
 62
     7
 10
-109.0
 20
-142.0176970880305
 30
0.0
 11
-109.0
 21
-153.0176970880305
 31
0.0
  0
ARC
  5
E6
  8
DATA
  6
CONTINUOUS
 62
     7
 10
-110.5
 20
-142.0176970880305
 30
0.0
 40
1.5
 50
0.0
 51
90.0
  0
LINE
  5
E7
  8
DATA
  6
CONTINUOUS
 62
     7
 10
-127.5
 20
-140.5176970880305
 30
0.0
 11
-110.5
 21
-140.5176970880305
 31
0.0
  0
ARC
  5
E8
  8
DATA
  6
CONTINUOUS
 62
     7
 10
-127.5
 20
-142.0176970880305
 30
0.0
 40
1.5
 50
90.0
 51
180.0
  0
LINE
  5
E9
  8
DATA
  6
CONTINUOUS
 62
     7
 10
-52.500000000000021
 20
-156.5
 30
0.0
 11
-52.500000000000021
 21
-124.5
 31
0.0
  0
CIRCLE
  5
EA
  8
DATA
  6
CONTINUOUS
 62
     7
 10
-81.000000000000014
 20
-147.5
 30
0.0
 40
7.0
  0
CIRCLE
  5
EB
  8
DATA
  6
CONTINUOUS
 62
     7
 10
-63.000000000000021
 20
-147.5
 30
0.0
 40
7.0
  0
CIRCLE
  5
EC
  8
DATA
  6
CONTINUOUS
 62
     7
 10
-63.000000000000021
 20
-147.5
 30
0.0
 40
4.9000000000000048
  0
CIRCLE
  5
ED
  8
DATA
  6
CONTINUOUS
 62
     7
 10
-81.000000000000014
 20
-147.5
 30
0.0
 40
4.25
  0
CIRCLE
  5
EE
  8
DATA
  6
CONTINUOUS
 62
     7
 10
-81.000000000000014
 20
-147.5
 30
0.0
 40
3.9499999999999882
  0
CIRCLE
  5
EF
  8
DATA
  6
CONTINUOUS
 62
     7
 10
-84.000000000000014
 20
-127.5
 30
0.0
 40
2.0
  0
CIRCLE
  5
F0
  8
DATA
  6
CONTINUOUS
 62
     7
 10
-72.000000000000014
 20
-127.5
 30
0.0
 40
2.0
  0
CIRCLE
  5
F1
  8
DATA
  6
CONTINUOUS
 62
     7
 10
-60.000000000000021
 20
-127.5
 30
0.0
 40
2.0
  0
TEXT
  5
F2
  8
DATA
 62
     7
 10
-86.519245810448552
 20
-133.384467826849
 30
0.0
 40
2.7781250000000002
  1
BAT
 41
0.7
 11
-86.519245810448552
 21
-130.60634282684899
 31
0.0
 73
     3
  0
TEXT
  5
F3
  8
DATA
 62
     7
 10
-75.167017255408453
 20
-133.384467826849
 30
0.0
 40
2.4432617187500001
  1
LINK
 41
0.7
 11
-75.167017255408453
 21
-130.94120610809901
 31
0.0
 73
     3
  0
TEXT
  5
F4
  8
DATA
 62
     7
 10
-62.889400921854211
 20
-133.384467826849
 30
0.0
 40
2.4432617187500001
  1
CLIP
 41
0.7
 11
-62.889400921854211
 21
-130.94120610809901
 31
0.0
 73
     3
  0
TEXT
  5
F5
  8
DATA
 62
     7
 10
-66.128258146653792
 20
-159.33287302331479
 30
0.0
 40
2.4432617187500001
  1
CH 1
 41
0.7
 11
-66.128258146653792
 21
-156.8896113045648
 31
0.0
 73
     3
  0
TEXT
  5
F6
  8
DATA
 62
     7
 10
-83.277554331426273
 20
-159.33287302331479
 30
0.0
 40
2.4432617187500001
  1
VOL
 41
0.7
 11
-83.277554331426273
 21
-156.8896113045648
 31
0.0
 73
     3
  0
LINE
  5
F7
  8
DATA
  6
CONTINUOUS
 62
     7
 10
-81.000000000000014
 20
-140.5
 30
0.0
 11
-81.000000000000014
 21
-137.59999999999999
 31
0.0
  0
LINE
  5
F8
  8
DATA
  6
CONTINUOUS
 62
     7
 10
-88.000000000000014
 20
-147.5
 30
0.0
 11
-90.900000000000006
 21
-147.5
 31
0.0
  0
LINE
  5
F9
  8
DATA
  6
CONTINUOUS
 62
     7
 10
-74.000000000000014
 20
-147.5
 30
0.0
 11
-71.100000000000023
 21
-147.5
 31
0.0
  0
LINE
  5
FA
  8
DATA
  6
CONTINUOUS
 62
     7
 10
-74.937822173509943
 20
-144.00000000000051
 30
0.0
 11
-72.426348502534509
 21
-142.55000000000021
 31
0.0
  0
LINE
  5
FB
  8
DATA
  6
CONTINUOUS
 62
     7
 10
-77.500000000001776
 20
-141.43782217351199
 30
0.0
 11
-76.050000000000139
 21
-138.92634850253421
 31
0.0
  0
LINE
  5
FC
  8
DATA
  6
CONTINUOUS
 62
     7
 10
-84.499999999998181
 20
-141.4378221735121
 30
0.0
 11
-85.949999999999889
 21
-138.92634850253421
 31
0.0
  0
LINE
  5
FD
  8
DATA
  6
CONTINUOUS
 62
     7
 10
-87.062177826491848
 20
-143.99999999999949
 30
0.0
 11
-89.573651497466258
 21
-142.5499999999997
 31
0.0
  0
LINE
  5
FE
  8
DATA
  6
CONTINUOUS
 62
     7
 10
-87.062177826490114
 20
-150.9999999999994
 30
0.0
 11
-89.57365149746586
 21
-152.4499999999999
 31
0.0
  0
LINE
  5
FF
  8
DATA
  6
CONTINUOUS
 62
     7
 10
-74.93782217350936
 20
-150.99999999999969
 30
0.0
 11
-72.42634850253414
 21
-152.44999999999999
 31
0.0
  0
LINE
  5
100
  8
DATA
  6
CONTINUOUS
 62
     7
 10
-77.25877252876883
 20
-158.0
 30
0.0
 11
-75.618772528768815
 21
-158.0
 31
0.0
  0
LINE
  5
101
  8
DATA
  6
CONTINUOUS
 62
     7
 10
-76.438772528768823
 20
-158.81999999999999
 30
0.0
 11
-76.438772528768823
 21
-157.18000000000001
 31
0.0
  0
LINE
  5
102
  8
DATA
  6
CONTINUOUS
 62
     7
 10
-84.341227471231164
 20
-158.0
 30
0.0
 11
-85.981227471231151
 21
-158.0
 31
0.0
  0
LINE
  5
103
  8
DATA
  6
CONTINUOUS
 62
     7
 10
-12.500000000000011
 20
-156.5
 30
0.0
 11
-12.500000000000011
 21
-124.5
 31
0.0
  0
CIRCLE
  5
104
  8
DATA
  6
CONTINUOUS
 62
     7
 10
-41.000000000000007
 20
-147.5
 30
0.0
 40
7.0
  0
CIRCLE
  5
105
  8
DATA
  6
CONTINUOUS
 62
     7
 10
-23.000000000000011
 20
-147.5
 30
0.0
 40
7.0
  0
CIRCLE
  5
106
  8
DATA
  6
CONTINUOUS
 62
     7
 10
-23.000000000000011
 20
-147.5
 30
0.0
 40
4.9000000000000048
  0
CIRCLE
  5
107
  8
DATA
  6
CONTINUOUS
 62
     7
 10
-41.000000000000007
 20
-147.5
 30
0.0
 40
4.25
  0
CIRCLE
  5
108
  8
DATA
  6
CONTINUOUS
 62
     7
 10
-41.000000000000007
 20
-147.5
 30
0.0
 40
3.9499999999999882
  0
CIRCLE
  5
109
  8
DATA
  6
CONTINUOUS
 62
     7
 10
-44.000000000000021
 20
-127.5
 30
0.0
 40
2.0
  0
CIRCLE
  5
10A
  8
DATA
  6
CONTINUOUS
 62
     7
 10
-32.000000000000007
 20
-127.5
 30
0.0
 40
2.0
  0
CIRCLE
  5
10B
  8
DATA
  6
CONTINUOUS
 62
     7
 10
-20.000000000000011
 20
-127.5
 30
0.0
 40
2.0
  0
TEXT
  5
10C
  8
DATA
 62
     7
 10
-46.519245810448538
 20
-133.384467826849
 30
0.0
 40
2.7781250000000002
  1
BAT
 41
0.7
 11
-46.519245810448538
 21
-130.60634282684899
 31
0.0
 73
     3
  0
TEXT
  5
10D
  8
DATA
 62
     7
 10
-35.167017255408453
 20
-133.384467826849
 30
0.0
 40
2.4432617187500001
  1
LINK
 41
0.7
 11
-35.167017255408453
 21
-130.94120610809901
 31
0.0
 73
     3
  0
TEXT
  5
10E
  8
DATA
 62
     7
 10
-22.8894009218542
 20
-133.384467826849
 30
0.0
 40
2.4432617187500001
  1
CLIP
 41
0.7
 11
-22.8894009218542
 21
-130.94120610809901
 31
0.0
 73
     3
  0
TEXT
  5
10F
  8
DATA
 62
     7
 10
-26.128258146653771
 20
-159.33287302331479
 30
0.0
 40
2.4432617187500001
  1
CH 2
 41
0.7
 11
-26.128258146653771
 21
-156.8896113045648
 31
0.0
 73
     3
  0
TEXT
  5
110
  8
DATA
 62
     7
 10
-43.277554331426259
 20
-159.33287302331479
 30
0.0
 40
2.4432617187500001
  1
VOL
 41
0.7
 11
-43.277554331426259
 21
-156.8896113045648
 31
0.0
 73
     3
  0
LINE
  5
111
  8
DATA
  6
CONTINUOUS
 62
     7
 10
-41.000000000000007
 20
-140.5
 30
0.0
 11
-41.000000000000007
 21
-137.59999999999999
 31
0.0
  0
LINE
  5
112
  8
DATA
  6
CONTINUOUS
 62
     7
 10
-48.000000000000021
 20
-147.5
 30
0.0
 11
-50.90000000000002
 21
-147.5
 31
0.0
  0
LINE
  5
113
  8
DATA
  6
CONTINUOUS
 62
     7
 10
-34.000000000000007
 20
-147.5
 30
0.0
 11
-31.100000000000009
 21
-147.5
 31
0.0
  0
LINE
  5
114
  8
DATA
  6
CONTINUOUS
 62
     7
 10
-34.937822173509929
 20
-144.00000000000051
 30
0.0
 11
-32.426348502534523
 21
-142.55000000000021
 31
0.0
  0
LINE
  5
115
  8
DATA
  6
CONTINUOUS
 62
     7
 10
-37.500000000001783
 20
-141.43782217351199
 30
0.0
 11
-36.050000000000132
 21
-138.92634850253421
 31
0.0
  0
LINE
  5
116
  8
DATA
  6
CONTINUOUS
 62
     7
 10
-44.499999999998202
 20
-141.4378221735121
 30
0.0
 11
-45.949999999999889
 21
-138.92634850253421
 31
0.0
  0
LINE
  5
117
  8
DATA
  6
CONTINUOUS
 62
     7
 10
-47.062177826491848
 20
-143.99999999999949
 30
0.0
 11
-49.57365149746628
 21
-142.5499999999997
 31
0.0
  0
LINE
  5
118
  8
DATA
  6
CONTINUOUS
 62
     7
 10
-47.0621778264901
 20
-150.9999999999994
 30
0.0
 11
-49.57365149746586
 21
-152.4499999999999
 31
0.0
  0
LINE
  5
119
  8
DATA
  6
CONTINUOUS
 62
     7
 10
-34.93782217350936
 20
-150.99999999999969
 30
0.0
 11
-32.42634850253414
 21
-152.44999999999999
 31
0.0
  0
LINE
  5
11A
  8
DATA
  6
CONTINUOUS
 62
     7
 10
-37.25877252876883
 20
-158.0
 30
0.0
 11
-35.618772528768851
 21
-158.0
 31
0.0
  0
LINE
  5
11B
  8
DATA
  6
CONTINUOUS
 62
     7
 10
-36.438772528768851
 20
-158.81999999999999
 30
0.0
 11
-36.438772528768851
 21
-157.18000000000001
 31
0.0
  0
LINE
  5
11C
  8
DATA
  6
CONTINUOUS
 62
     7
 10
-44.341227471231171
 20
-158.0
 30
0.0
 11
-45.981227471231144
 21
-158.0
 31
0.0
  0
LINE
  5
11D
  8
DATA
  6
CONTINUOUS
 62
     7
 10
27.499999999999989
 20
-156.5
 30
0.0
 11
27.499999999999989
 21
-124.5
 31
0.0
  0
CIRCLE
  5
11E
  8
DATA
  6
CONTINUOUS
 62
     7
 10
-1.000000000000014
 20
-147.5
 30
0.0
 40
7.0
  0
CIRCLE
  5
11F
  8
DATA
  6
CONTINUOUS
 62
     7
 10
16.999999999999979
 20
-147.5
 30
0.0
 40
7.0
  0
CIRCLE
  5
120
  8
DATA
  6
CONTINUOUS
 62
     7
 10
16.999999999999979
 20
-147.5
 30
0.0
 40
4.9000000000000048
  0
CIRCLE
  5
121
  8
DATA
  6
CONTINUOUS
 62
     7
 10
-1.000000000000014
 20
-147.5
 30
0.0
 40
4.25
  0
CIRCLE
  5
122
  8
DATA
  6
CONTINUOUS
 62
     7
 10
-1.000000000000014
 20
-147.5
 30
0.0
 40
3.9499999999999882
  0
CIRCLE
  5
123
  8
DATA
  6
CONTINUOUS
 62
     7
 10
-4.0000000000000142
 20
-127.5
 30
0.0
 40
2.0
  0
CIRCLE
  5
124
  8
DATA
  6
CONTINUOUS
 62
     7
 10
7.9999999999999867
 20
-127.5
 30
0.0
 40
2.0
  0
CIRCLE
  5
125
  8
DATA
  6
CONTINUOUS
 62
     7
 10
19.999999999999979
 20
-127.5
 30
0.0
 40
2.0
  0
TEXT
  5
126
  8
DATA
 62
     7
 10
-6.5192458104485373
 20
-133.384467826849
 30
0.0
 40
2.7781250000000002
  1
BAT
 41
0.7
 11
-6.5192458104485373
 21
-130.60634282684899
 31
0.0
 73
     3
  0
TEXT
  5
127
  8
DATA
 62
     7
 10
4.8329827445915461
 20
-133.384467826849
 30
0.0
 40
2.4432617187500001
  1
LINK
 41
0.7
 11
4.8329827445915461
 21
-130.94120610809901
 31
0.0
 73
     3
  0
TEXT
  5
128
  8
DATA
 62
     7
 10
17.110599078145789
 20
-133.384467826849
 30
0.0
 40
2.4432617187500001
  1
CLIP
 41
0.7
 11
17.110599078145789
 21
-130.94120610809901
 31
0.0
 73
     3
  0
TEXT
  5
129
  8
DATA
 62
     7
 10
13.87174185334622
 20
-159.33287302331479
 30
0.0
 40
2.4432617187500001
  1
CH 3
 41
0.7
 11
13.87174185334622
 21
-156.8896113045648
 31
0.0
 73
     3
  0
TEXT
  5
12A
  8
DATA
 62
     7
 10
-3.2775543314262592
 20
-159.33287302331479
 30
0.0
 40
2.4432617187500001
  1
VOL
 41
0.7
 11
-3.2775543314262592
 21
-156.8896113045648
 31
0.0
 73
     3
  0
LINE
  5
12B
  8
DATA
  6
CONTINUOUS
 62
     7
 10
-1.000000000000014
 20
-140.5
 30
0.0
 11
-1.000000000000014
 21
-137.59999999999999
 31
0.0
  0
LINE
  5
12C
  8
DATA
  6
CONTINUOUS
 62
     7
 10
-8.0000000000000142
 20
-147.5
 30
0.0
 11
-10.90000000000002
 21
-147.5
 31
0.0
  0
LINE
  5
12D
  8
DATA
  6
CONTINUOUS
 62
     7
 10
5.9999999999999849
 20
-147.5
 30
0.0
 11
8.8999999999999897
 21
-147.5
 31
0.0
  0
LINE
  5
12E
  8
DATA
  6
CONTINUOUS
 62
     7
 10
5.0621778264900712
 20
-144.00000000000051
 30
0.0
 11
7.57365149746549
 21
-142.55000000000021
 31
0.0
  0
LINE
  5
12F
  8
DATA
  6
CONTINUOUS
 62
     7
 10
2.4999999999982241
 20
-141.43782217351199
 30
0.0
 11
3.9499999999998598
 21
-138.92634850253421
 31
0.0
  0
LINE
  5
130
  8
DATA
  6
CONTINUOUS
 62
     7
 10
-4.4999999999981952
 20
-141.4378221735121
 30
0.0
 11
-5.9499999999998892
 21
-138.92634850253421
 31
0.0
  0
LINE
  5
131
  8
DATA
  6
CONTINUOUS
 62
     7
 10
-7.0621778264918609
 20
-143.99999999999949
 30
0.0
 11
-9.5736514974662867
 21
-142.5499999999997
 31
0.0
  0
LINE
  5
132
  8
DATA
  6
CONTINUOUS
 62
     7
 10
-7.0621778264900987
 20
-150.9999999999994
 30
0.0
 11
-9.5736514974658586
 21
-152.4499999999999
 31
0.0
  0
LINE
  5
133
  8
DATA
  6
CONTINUOUS
 62
     7
 10
5.0621778264906387
 20
-150.99999999999969
 30
0.0
 11
7.5736514974658586
 21
-152.44999999999999
 31
0.0
  0
LINE
  5
134
  8
DATA
  6
CONTINUOUS
 62
     7
 10
2.7412274712311691
 20
-158.0
 30
0.0
 11
4.3812274712311563
 21
-158.0
 31
0.0
  0
LINE
  5
135
  8
DATA
  6
CONTINUOUS
 62
     7
 10
3.5612274712311631
 20
-158.81999999999999
 30
0.0
 11
3.5612274712311631
 21
-157.18000000000001
 31
0.0
  0
LINE
  5
136
  8
DATA
  6
CONTINUOUS
 62
     7
 10
-4.3412274712311643
 20
-158.0
 30
0.0
 11
-5.9812274712311506
 21
-158.0
 31
0.0
  0
CIRCLE
  5
137
  8
DATA
  6
CONTINUOUS
 62
     7
 10
39.0
 20
-147.5
 30
0.0
 40
7.0
  0
CIRCLE
  5
138
  8
DATA
  6
CONTINUOUS
 62
     7
 10
56.999999999999993
 20
-147.5
 30
0.0
 40
7.0
  0
CIRCLE
  5
139
  8
DATA
  6
CONTINUOUS
 62
     7
 10
56.999999999999993
 20
-147.5
 30
0.0
 40
4.9000000000000048
  0
CIRCLE
  5
13A
  8
DATA
  6
CONTINUOUS
 62
     7
 10
39.0
 20
-147.5
 30
0.0
 40
4.25
  0
CIRCLE
  5
13B
  8
DATA
  6
CONTINUOUS
 62
     7
 10
39.0
 20
-147.5
 30
0.0
 40
3.9499999999999882
  0
CIRCLE
  5
13C
  8
DATA
  6
CONTINUOUS
 62
     7
 10
35.999999999999993
 20
-127.5
 30
0.0
 40
2.0
  0
CIRCLE
  5
13D
  8
DATA
  6
CONTINUOUS
 62
     7
 10
47.999999999999993
 20
-127.5
 30
0.0
 40
2.0
  0
CIRCLE
  5
13E
  8
DATA
  6
CONTINUOUS
 62
     7
 10
60.0
 20
-127.5
 30
0.0
 40
2.0
  0
TEXT
  5
13F
  8
DATA
 62
     7
 10
33.480754189551462
 20
-133.384467826849
 30
0.0
 40
2.7781250000000002
  1
BAT
 41
0.7
 11
33.480754189551462
 21
-130.60634282684899
 31
0.0
 73
     3
  0
TEXT
  5
140
  8
DATA
 62
     7
 10
44.832982744591547
 20
-133.384467826849
 30
0.0
 40
2.4432617187500001
  1
LINK
 41
0.7
 11
44.832982744591547
 21
-130.94120610809901
 31
0.0
 73
     3
  0
TEXT
  5
141
  8
DATA
 62
     7
 10
57.110599078145789
 20
-133.384467826849
 30
0.0
 40
2.4432617187500001
  1
CLIP
 41
0.7
 11
57.110599078145789
 21
-130.94120610809901
 31
0.0
 73
     3
  0
TEXT
  5
142
  8
DATA
 62
     7
 10
53.871741853346222
 20
-159.33287302331479
 30
0.0
 40
2.4432617187500001
  1
CH 4
 41
0.7
 11
53.871741853346222
 21
-156.8896113045648
 31
0.0
 73
     3
  0
TEXT
  5
143
  8
DATA
 62
     7
 10
36.722445668573741
 20
-159.33287302331479
 30
0.0
 40
2.4432617187500001
  1
VOL
 41
0.7
 11
36.722445668573741
 21
-156.8896113045648
 31
0.0
 73
     3
  0
LINE
  5
144
  8
DATA
  6
CONTINUOUS
 62
     7
 10
39.0
 20
-140.5
 30
0.0
 11
39.0
 21
-137.59999999999999
 31
0.0
  0
LINE
  5
145
  8
DATA
  6
CONTINUOUS
 62
     7
 10
31.999999999999989
 20
-147.5
 30
0.0
 11
29.09999999999998
 21
-147.5
 31
0.0
  0
LINE
  5
146
  8
DATA
  6
CONTINUOUS
 62
     7
 10
45.999999999999993
 20
-147.5
 30
0.0
 11
48.899999999999991
 21
-147.5
 31
0.0
  0
LINE
  5
147
  8
DATA
  6
CONTINUOUS
 62
     7
 10
45.062177826490071
 20
-144.00000000000051
 30
0.0
 11
47.573651497465498
 21
-142.55000000000021
 31
0.0
  0
LINE
  5
148
  8
DATA
  6
CONTINUOUS
 62
     7
 10
42.499999999998217
 20
-141.43782217351199
 30
0.0
 11
43.949999999999839
 21
-138.92634850253421
 31
0.0
  0
LINE
  5
149
  8
DATA
  6
CONTINUOUS
 62
     7
 10
35.500000000001812
 20
-141.4378221735121
 30
0.0
 11
34.050000000000111
 21
-138.92634850253421
 31
0.0
  0
LINE
  5
14A
  8
DATA
  6
CONTINUOUS
 62
     7
 10
32.937822173508138
 20
-143.99999999999949
 30
0.0
 11
30.42634850253372
 21
-142.5499999999997
 31
0.0
  0
LINE
  5
14B
  8
DATA
  6
CONTINUOUS
 62
     7
 10
32.9378221735099
 20
-150.9999999999994
 30
0.0
 11
30.42634850253414
 21
-152.4499999999999
 31
0.0
  0
LINE
  5
14C
  8
DATA
  6
CONTINUOUS
 62
     7
 10
45.06217782649064
 20
-150.99999999999969
 30
0.0
 11
47.573651497465853
 21
-152.44999999999999
 31
0.0
  0
LINE
  5
14D
  8
DATA
  6
CONTINUOUS
 62
     7
 10
42.74122747123117
 20
-158.0
 30
0.0
 11
44.381227471231163
 21
-158.0
 31
0.0
  0
LINE
  5
14E
  8
DATA
  6
CONTINUOUS
 62
     7
 10
43.561227471231149
 20
-158.81999999999999
 30
0.0
 11
43.561227471231149
 21
-157.18000000000001
 31
0.0
  0
LINE
  5
14F
  8
DATA
  6
CONTINUOUS
 62
     7
 10
35.658772528768843
 20
-158.0
 30
0.0
 11
34.018772528768849
 21
-158.0
 31
0.0
  0
ARC
  5
150
  8
DATA
  6
CONTINUOUS
 62
     7
 10
136.5
 20
-147.5
 30
0.0
 40
7.5000000000000462
 50
108.94731381368049
 51
209.84315353943001
  0
ARC
  5
151
  8
DATA
  6
CONTINUOUS
 62
     7
 10
136.5
 20
-147.5
 30
0.0
 40
7.5000000000000702
 50
228.9605302186819
 51
271.03946978131819
  0
ARC
  5
152
  8
DATA
  6
CONTINUOUS
 62
     7
 10
136.5
 20
-147.5
 30
0.0
 40
7.5000000000000462
 50
290.1568464605682
 51
31.052686186320269
  0
ARC
  5
153
  8
DATA
  6
CONTINUOUS
 62
     7
 10
77.499999999999972
 20
-147.5
 30
0.0
 40
7.5000000000000222
 50
148.94731381367899
 51
249.84315353942989
  0
ARC
  5
154
  8
DATA
  6
CONTINUOUS
 62
     7
 10
77.499999999999972
 20
-147.5
 30
0.0
 40
7.5000000000000329
 50
268.96053021868278
 51
311.03946978131842
  0
ARC
  5
155
  8
DATA
  6
CONTINUOUS
 62
     7
 10
77.499999999999972
 20
-147.5
 30
0.0
 40
7.5000000000000302
 50
330.15684646057042
 51
71.052686186320045
  0
LINE
  5
156
  8
DATA
  6
CONTINUOUS
 62
     7
 10
129.5483497859087
 20
-152.4190506503719
 30
0.0
 11
159.94430376052691
 21
-71.572347064422075
 31
0.0
  0
LINE
  5
157
  8
DATA
  6
CONTINUOUS
 62
     7
 10
138.66336820753199
 20
-155.73664604063089
 30
0.0
 11
167.345975919376
 21
-74.266335419321393
 31
0.0
  0
LINE
  5
158
  8
DATA
  6
CONTINUOUS
 62
     7
 10
138.66336820753199
 20
-155.73664604063089
 30
0.0
 11
129.5483497859087
 21
-152.4190506503719
 31
0.0
  0
ARC
  5
159
  8
DATA
  6
CONTINUOUS
 62
     7
 10
163.59290877999089
 20
-73.062844899631045
 30
0.0
 40
3.9413071922544911
 50
342.22058919953321
 51
157.77941080046679
  0
LINE
  5
15A
  8
DATA
  6
CONTINUOUS
 62
     7
 10
165.5635626261392
 20
-79.329116534428863
 30
0.0
 11
158.05541858605969
 21
-76.596375589256752
 31
0.0
  0
LINE
  5
15B
  8
DATA
  6
CONTINUOUS
 62
     7
 10
164.89936029481549
 20
-81.215722201248667
 30
0.0
 11
157.35154034408069
 21
-78.468540405580612
 31
0.0
  0
ARC
  5
15C
  8
DATA
  6
CONTINUOUS
 62
     7
 10
77.500000000000014
 20
-147.5
 30
0.0
 40
7.5000000000000346
 50
148.9473138136801
 51
249.84315353942961
  0
ARC
  5
15D
  8
DATA
  6
CONTINUOUS
 62
     7
 10
77.500000000000014
 20
-147.5
 30
0.0
 40
7.5000000000000329
 50
268.96053021868249
 51
311.03946978131722
  0
ARC
  5
15E
  8
DATA
  6
CONTINUOUS
 62
     7
 10
77.500000000000014
 20
-147.5
 30
0.0
 40
7.5000000000000187
 50
330.15684646056928
 51
71.052686186319974
  0
LINE
  5
15F
  8
DATA
  6
CONTINUOUS
 62
     7
 10
84.451650214091316
 20
-152.4190506503719
 30
0.0
 11
54.055696239473029
 21
-71.572347064422075
 31
0.0
  0
LINE
  5
160
  8
DATA
  6
CONTINUOUS
 62
     7
 10
75.336631792468012
 20
-155.73664604063089
 30
0.0
 11
46.654024080623927
 21
-74.266335419321393
 31
0.0
  0
LINE
  5
161
  8
DATA
  6
CONTINUOUS
 62
     7
 10
75.336631792468012
 20
-155.73664604063089
 30
0.0
 11
84.451650214091316
 21
-152.4190506503719
 31
0.0
  0
ARC
  5
162
  8
DATA
  6
CONTINUOUS
 62
     7
 10
50.40709122000905
 20
-73.062844899631045
 30
0.0
 40
3.941307192254492
 50
22.22058919953319
 51
197.77941080046679
  0
LINE
  5
163
  8
DATA
  6
CONTINUOUS
 62
     7
 10
48.436437373860819
 20
-79.329116534428863
 30
0.0
 11
55.94458141394022
 21
-76.596375589256752
 31
0.0
  0
LINE
  5
164
  8
DATA
  6
CONTINUOUS
 62
     7
 10
49.100639705184449
 20
-81.215722201248667
 30
0.0
 11
56.648459655919261
 21
-78.468540405580612
 31
0.0
  0
TEXT
  5
165
  8
DATA
 62
     7
 10
96.872494743197123
 20
-150.8740864986936
 30
0.0
 40
4.8865234375000002
  1
DSR 70
 41
0.7
 11
96.872494743197123
 21
-145.98756306119361
 31
0.0
 73
     3
  0
ARC
  5
166
  8
DATA
  6
CONTINUOUS
 62
     7
 10
-119.0
 20
-147.87475421837209
 30
0.0
 40
2.5000000000000089
 50
113.5781784782024
 51
66.421821521798734
  0
LINE
  5
167
  8
DATA
  6
CONTINUOUS
 62
     7
 10
-119.0
 20
-147.1570571303416
 30
0.0
 11
-119.0
 21
-144.25705713034159
 31
0.0
  0
ARC
  5
168
  8
DATA
  6
CONTINUOUS
 62
     7
 10
-136.0
 20
-121.0
 30
0.0
 40
1.5
 50
90.0
 51
180.0
  0
ARC
  5
169
  8
DATA
  6
CONTINUOUS
 62
     7
 10
160.0
 20
-121.0
 30
0.0
 40
1.5
 50
0.0
 51
90.0
  0
LINE
  5
16A
  8
DATA
  6
CONTINUOUS
 62
     7
 10
-127.0
 20
-29.0
 30
0.0
 11
-127.0
 21
-25.0
 31
0.0
  0
LINE
  5
16B
  8
DATA
  6
CONTINUOUS
 62
     7
 10
-111.0
 20
-29.0
 30
0.0
 11
-111.0
 21
-25.0
 31
0.0
  0
LINE
  5
16C
  8
DATA
  6
CONTINUOUS
 62
     7
 10
-127.0
 20
-29.0
 30
0.0
 11
-111.0
 21
-29.0
 31
0.0
  0
LINE
  5
16D
  8
DATA
  6
CONTINUOUS
 62
     7
 10
-129.0
 20
-25.0
 30
0.0
 11
-127.0
 21
-28.4641016151378
 31
0.0
  0
LINE
  5
16E
  8
DATA
  6
CONTINUOUS
 62
     7
 10
-109.0
 20
-25.0
 30
0.0
 11
-111.0
 21
-28.4641016151378
 31
0.0
  0
LINE
  5
16F
  8
DATA
  6
CONTINUOUS
 62
     7
 10
-127.0
 20
-28.4641016151378
 30
0.0
 11
-111.0
 21
-28.4641016151378
 31
0.0
  0
LINE
  5
170
  8
DATA
  6
CONTINUOUS
 62
     7
 10
-84.950000000000003
 20
-35.0
 30
0.0
 11
-77.050000000000026
 21
-35.0
 31
0.0
  0
LINE
  5
171
  8
DATA
  6
CONTINUOUS
 62
     7
 10
-67.250000000000014
 20
-26.5
 30
0.0
 11
-58.750000000000021
 21
-26.5
 31
0.0
  0
LINE
  5
172
  8
DATA
  6
CONTINUOUS
 62
     7
 10
-84.950000000000003
 20
-35.0
 30
0.0
 11
-85.250000000000014
 21
-26.5
 31
0.0
  0
LINE
  5
173
  8
DATA
  6
CONTINUOUS
 62
     7
 10
-77.050000000000026
 20
-35.0
 30
0.0
 11
-76.750000000000014
 21
-26.5
 31
0.0
  0
ARC
  5
174
  8
DATA
  6
CONTINUOUS
 62
     7
 10
-63.764999999999532
 20
-16.839999999999119
 30
0.0
 40
10.269412105861759
 50
232.61680303650621
 51
250.1622776315634
  0
ARC
  5
175
  8
DATA
  6
CONTINUOUS
 62
     7
 10
-62.235000000000468
 20
-16.839999999999119
 30
0.0
 40
10.26941210586177
 50
289.83772236843669
 51
307.38319696349379
  0
ARC
  5
176
  8
DATA
  6
CONTINUOUS
 62
     7
 10
-63.000000000000021
 20
-20.20384615384625
 30
0.0
 40
7.5963184013334093
 50
235.98004888989291
 51
304.01995111010717
  0
LINE
  5
177
  8
DATA
  6
CONTINUOUS
 62
     7
 10
-85.250000000000014
 20
-26.5
 30
0.0
 11
-76.750000000000014
 21
-26.5
 31
0.0
  0
ARC
  5
178
  8
DATA
  6
CONTINUOUS
 62
     7
 10
-81.764999999999546
 20
-16.839999999999119
 30
0.0
 40
10.269412105861759
 50
232.61680303650621
 51
250.1622776315634
  0
ARC
  5
179
  8
DATA
  6
CONTINUOUS
 62
     7
 10
-80.235000000000483
 20
-16.839999999999119
 30
0.0
 40
10.26941210586177
 50
289.83772236843669
 51
307.38319696349379
  0
LINE
  5
17A
  8
DATA
  6
CONTINUOUS
 62
     7
 10
-44.950000000000003
 20
-35.0
 30
0.0
 11
-37.050000000000033
 21
-35.0
 31
0.0
  0
LINE
  5
17B
  8
DATA
  6
CONTINUOUS
 62
     7
 10
-27.250000000000011
 20
-26.5
 30
0.0
 11
-18.750000000000011
 21
-26.5
 31
0.0
  0
LINE
  5
17C
  8
DATA
  6
CONTINUOUS
 62
     7
 10
-44.950000000000003
 20
-35.0
 30
0.0
 11
-45.250000000000021
 21
-26.5
 31
0.0
  0
LINE
  5
17D
  8
DATA
  6
CONTINUOUS
 62
     7
 10
-37.050000000000033
 20
-35.0
 30
0.0
 11
-36.750000000000021
 21
-26.5
 31
0.0
  0
ARC
  5
17E
  8
DATA
  6
CONTINUOUS
 62
     7
 10
-23.764999999999549
 20
-16.839999999999119
 30
0.0
 40
10.269412105861759
 50
232.61680303650621
 51
250.1622776315634
  0
ARC
  5
17F
  8
DATA
  6
CONTINUOUS
 62
     7
 10
-22.23500000000049
 20
-16.839999999999119
 30
0.0
 40
10.26941210586177
 50
289.83772236843669
 51
307.38319696349379
  0
ARC
  5
180
  8
DATA
  6
CONTINUOUS
 62
     7
 10
-23.000000000000011
 20
-20.20384615384625
 30
0.0
 40
7.5963184013334093
 50
235.98004888989291
 51
304.01995111010717
  0
LINE
  5
181
  8
DATA
  6
CONTINUOUS
 62
     7
 10
-45.250000000000021
 20
-26.5
 30
0.0
 11
-36.750000000000021
 21
-26.5
 31
0.0
  0
ARC
  5
182
  8
DATA
  6
CONTINUOUS
 62
     7
 10
-41.764999999999539
 20
-16.839999999999119
 30
0.0
 40
10.269412105861759
 50
232.61680303650621
 51
250.1622776315634
  0
ARC
  5
183
  8
DATA
  6
CONTINUOUS
 62
     7
 10
-40.235000000000468
 20
-16.839999999999119
 30
0.0
 40
10.26941210586177
 50
289.83772236843669
 51
307.38319696349379
  0
LINE
  5
184
  8
DATA
  6
CONTINUOUS
 62
     7
 10
-4.950000000000002
 20
-35.0
 30
0.0
 11
2.949999999999974
 21
-35.0
 31
0.0
  0
LINE
  5
185
  8
DATA
  6
CONTINUOUS
 62
     7
 10
12.74999999999998
 20
-26.5
 30
0.0
 11
21.249999999999979
 21
-26.5
 31
0.0
  0
LINE
  5
186
  8
DATA
  6
CONTINUOUS
 62
     7
 10
-4.950000000000002
 20
-35.0
 30
0.0
 11
-5.2500000000000142
 21
-26.5
 31
0.0
  0
LINE
  5
187
  8
DATA
  6
CONTINUOUS
 62
     7
 10
2.949999999999974
 20
-35.0
 30
0.0
 11
3.2499999999999849
 21
-26.5
 31
0.0
  0
ARC
  5
188
  8
DATA
  6
CONTINUOUS
 62
     7
 10
16.235000000000451
 20
-16.839999999999119
 30
0.0
 40
10.269412105861759
 50
232.61680303650621
 51
250.1622776315634
  0
ARC
  5
189
  8
DATA
  6
CONTINUOUS
 62
     7
 10
17.764999999999521
 20
-16.839999999999119
 30
0.0
 40
10.26941210586177
 50
289.83772236843669
 51
307.38319696349379
  0
ARC
  5
18A
  8
DATA
  6
CONTINUOUS
 62
     7
 10
16.999999999999979
 20
-20.20384615384625
 30
0.0
 40
7.5963184013334093
 50
235.98004888989291
 51
304.01995111010717
  0
LINE
  5
18B
  8
DATA
  6
CONTINUOUS
 62
     7
 10
-5.2500000000000142
 20
-26.5
 30
0.0
 11
3.2499999999999849
 21
-26.5
 31
0.0
  0
ARC
  5
18C
  8
DATA
  6
CONTINUOUS
 62
     7
 10
-1.7649999999995449
 20
-16.839999999999119
 30
0.0
 40
10.269412105861759
 50
232.61680303650621
 51
250.1622776315634
  0
ARC
  5
18D
  8
DATA
  6
CONTINUOUS
 62
     7
 10
-0.2350000000004826
 20
-16.839999999999119
 30
0.0
 40
10.26941210586177
 50
289.83772236843669
 51
307.38319696349379
  0
LINE
  5
18E
  8
DATA
  6
CONTINUOUS
 62
     7
 10
35.049999999999997
 20
-35.0
 30
0.0
 11
42.949999999999967
 21
-35.0
 31
0.0
  0
LINE
  5
18F
  8
DATA
  6
CONTINUOUS
 62
     7
 10
52.749999999999993
 20
-26.5
 30
0.0
 11
61.25
 21
-26.5
 31
0.0
  0
LINE
  5
190
  8
DATA
  6
CONTINUOUS
 62
     7
 10
35.049999999999997
 20
-35.0
 30
0.0
 11
34.749999999999993
 21
-26.5
 31
0.0
  0
LINE
  5
191
  8
DATA
  6
CONTINUOUS
 62
     7
 10
42.949999999999967
 20
-35.0
 30
0.0
 11
43.249999999999993
 21
-26.5
 31
0.0
  0
ARC
  5
192
  8
DATA
  6
CONTINUOUS
 62
     7
 10
56.235000000000461
 20
-16.839999999999119
 30
0.0
 40
10.269412105861759
 50
232.61680303650621
 51
250.1622776315634
  0
ARC
  5
193
  8
DATA
  6
CONTINUOUS
 62
     7
 10
57.764999999999517
 20
-16.839999999999119
 30
0.0
 40
10.26941210586177
 50
289.83772236843669
 51
307.38319696349379
  0
ARC
  5
194
  8
DATA
  6
CONTINUOUS
 62
     7
 10
56.999999999999993
 20
-20.20384615384625
 30
0.0
 40
7.5963184013334093
 50
235.98004888989291
 51
304.01995111010717
  0
LINE
  5
195
  8
DATA
  6
CONTINUOUS
 62
     7
 10
34.749999999999993
 20
-26.5
 30
0.0
 11
43.249999999999993
 21
-26.5
 31
0.0
  0
ARC
  5
196
  8
DATA
  6
CONTINUOUS
 62
     7
 10
38.235000000000447
 20
-16.839999999999119
 30
0.0
 40
10.269412105861759
 50
232.61680303650621
 51
250.1622776315634
  0
ARC
  5
197
  8
DATA
  6
CONTINUOUS
 62
     7
 10
39.764999999999532
 20
-16.839999999999119
 30
0.0
 40
10.26941210586177
 50
289.83772236843669
 51
307.38319696349379
  0
LINE
  5
198
  8
DATA
  6
CONTINUOUS
 62
     7
 10
161.5
 20
-12.0
 30
0.0
 11
-137.5
 21
-12.0
 31
0.0
  0
LINE
  5
199
  8
DATA
  6
CONTINUOUS
 62
     7
 10
161.5
 20
-11.80000000000001
 30
0.0
 11
-137.5
 21
-11.80000000000001
 31
0.0
  0
LINE
  5
19A
  8
DATA
  6
CONTINUOUS
 62
     7
 10
-137.5
 20
217.99999999982001
 30
0.0
 11
-137.5
 21
176.49999999982001
 31
0.0
  0
LINE
  5
19B
  8
DATA
  6
CONTINUOUS
 62
     7
 10
161.5
 20
217.99999999982001
 30
0.0
 11
-137.5
 21
217.99999999982001
 31
0.0
  0
LINE
  5
19C
  8
DATA
  6
CONTINUOUS
 62
     7
 10
161.5
 20
176.49999999982001
 30
0.0
 11
161.5
 21
217.99999999982001
 31
0.0
  0
LINE
  5
19D
  8
DATA
  6
CONTINUOUS
 62
     7
 10
-136.0
 20
174.99999999982001
 30
0.0
 11
160.0
 21
174.99999999982001
 31
0.0
  0
LINE
  5
19E
  8
DATA
  6
CONTINUOUS
 62
     7
 10
-98.900000000000006
 20
219.99999999982001
 30
0.0
 11
-89.100000000000037
 21
219.99999999982001
 31
0.0
  0
LINE
  5
19F
  8
DATA
  6
CONTINUOUS
 62
     7
 10
-98.900000000000006
 20
219.99999999982001
 30
0.0
 11
-99.667123287671245
 21
217.99999999982001
 31
0.0
  0
LINE
  5
1A0
  8
DATA
  6
CONTINUOUS
 62
     7
 10
-89.100000000000037
 20
219.99999999982001
 30
0.0
 11
-88.332876712328783
 21
217.99999999982001
 31
0.0
  0
LINE
  5
1A1
  8
DATA
  6
CONTINUOUS
 62
     7
 10
122.89999999999991
 20
219.99999999982001
 30
0.0
 11
113.09999999999999
 21
219.99999999982001
 31
0.0
  0
LINE
  5
1A2
  8
DATA
  6
CONTINUOUS
 62
     7
 10
122.89999999999991
 20
219.99999999982001
 30
0.0
 11
123.6671232876712
 21
217.99999999982001
 31
0.0
  0
LINE
  5
1A3
  8
DATA
  6
CONTINUOUS
 62
     7
 10
113.09999999999999
 20
219.99999999982001
 30
0.0
 11
112.3328767123287
 21
217.99999999982001
 31
0.0
  0
LINE
  5
1A4
  8
DATA
  6
CONTINUOUS
 62
     7
 10
141.92493292504761
 20
174.99999999982001
 30
0.0
 11
159.94430376052691
 21
127.07234706424209
 31
0.0
  0
LINE
  5
1A5
  8
DATA
  6
CONTINUOUS
 62
     7
 10
151.42091749450509
 20
174.99999999982001
 30
0.0
 11
167.345975919376
 21
129.76633541914151
 31
0.0
  0
ARC
  5
1A6
  8
DATA
  6
CONTINUOUS
 62
     7
 10
163.59290877999089
 20
128.56284489945111
 30
0.0
 40
3.941307192254488
 50
202.22058919953301
 51
17.779410800467051
  0
LINE
  5
1A7
  8
DATA
  6
CONTINUOUS
 62
     7
 10
165.5635626261392
 20
134.8291165342489
 30
0.0
 11
158.05541858605969
 21
132.09637558907681
 31
0.0
  0
LINE
  5
1A8
  8
DATA
  6
CONTINUOUS
 62
     7
 10
164.89936029481549
 20
136.7157222010687
 30
0.0
 11
157.35154034408069
 21
133.9685404054006
 31
0.0
  0
LINE
  5
1A9
  8
DATA
  6
CONTINUOUS
 62
     7
 10
72.075067074952344
 20
174.99999999982001
 30
0.0
 11
54.055696239473029
 21
127.07234706424209
 31
0.0
  0
LINE
  5
1AA
  8
DATA
  6
CONTINUOUS
 62
     7
 10
62.579082505494902
 20
174.99999999982001
 30
0.0
 11
46.654024080623927
 21
129.76633541914151
 31
0.0
  0
ARC
  5
1AB
  8
DATA
  6
CONTINUOUS
 62
     7
 10
50.40709122000905
 20
128.56284489945111
 30
0.0
 40
3.9413071922544951
 50
162.22058919953301
 51
337.77941080046691
  0
LINE
  5
1AC
  8
DATA
  6
CONTINUOUS
 62
     7
 10
48.436437373860819
 20
134.8291165342489
 30
0.0
 11
55.94458141394022
 21
132.09637558907681
 31
0.0
  0
LINE
  5
1AD
  8
DATA
  6
CONTINUOUS
 62
     7
 10
49.100639705184449
 20
136.7157222010687
 30
0.0
 11
56.648459655919261
 21
133.9685404054006
 31
0.0
  0
ARC
  5
1AE
  8
DATA
  6
CONTINUOUS
 62
     7
 10
-136.0
 20
176.49999999982001
 30
0.0
 40
1.5
 50
180.0
 51
270.0
  0
ARC
  5
1AF
  8
DATA
  6
CONTINUOUS
 62
     7
 10
160.0
 20
176.49999999982001
 30
0.0
 40
1.5
 50
270.0
 51
0.0
  0
CIRCLE
  5
1B0
  8
DATA
  6
CONTINUOUS
 62
     7
 10
-72.5281196349342
 20
195.65595253269049
 30
0.0
 40
11.0
  0
CIRCLE
  5
1B1
  8
DATA
  6
CONTINUOUS
 62
     7
 10
-72.5281196349342
 20
195.65595253269049
 30
0.0
 40
8.5
  0
CIRCLE
  5
1B2
  8
DATA
  6
CONTINUOUS
 62
     7
 10
-72.5281196349342
 20
199.7559525326904
 30
0.0
 40
1.0
  0
CIRCLE
  5
1B3
  8
DATA
  6
CONTINUOUS
 62
     7
 10
-76.628119634934208
 20
195.297405610125
 30
0.0
 40
1.0
  0
CIRCLE
  5
1B4
  8
DATA
  6
CONTINUOUS
 62
     7
 10
-68.42811963493422
 20
195.297405610125
 30
0.0
 40
1.0
  0
CIRCLE
  5
1B5
  8
DATA
  6
CONTINUOUS
 62
     7
 10
-82.427614571545917
 20
205.55544746930201
 30
0.0
 40
2.3000000000000109
  0
LINE
  5
1B6
  8
DATA
  6
CONTINUOUS
 62
     7
 10
-81.01077925358048
 20
205.55544746930201
 30
0.0
 11
-83.844449889511324
 21
205.55544746930201
 31
0.0
  0
LINE
  5
1B7
  8
DATA
  6
CONTINUOUS
 62
     7
 10
-82.427614571545917
 20
204.13861215133801
 30
0.0
 11
-82.427614571545917
 21
206.97228278726601
 31
0.0
  0
CIRCLE
  5
1B8
  8
DATA
  6
CONTINUOUS
 62
     7
 10
-62.628624698322561
 20
185.7564575960788
 30
0.0
 40
2.2999999999999821
  0
LINE
  5
1B9
  8
DATA
  6
CONTINUOUS
 62
     7
 10
-61.211789380357132
 20
185.7564575960788
 30
0.0
 11
-64.045460016287976
 21
185.7564575960788
 31
0.0
  0
LINE
  5
1BA
  8
DATA
  6
CONTINUOUS
 62
     7
 10
-62.628624698322561
 20
184.33962227811449
 30
0.0
 11
-62.628624698322561
 21
187.1732929140432
 31
0.0
  0
CIRCLE
  5
1BB
  8
DATA
  6
CONTINUOUS
 62
     7
 10
-32.028119634934221
 20
195.65595253269049
 30
0.0
 40
11.0
  0
CIRCLE
  5
1BC
  8
DATA
  6
CONTINUOUS
 62
     7
 10
-32.028119634934221
 20
195.65595253269049
 30
0.0
 40
8.5
  0
CIRCLE
  5
1BD
  8
DATA
  6
CONTINUOUS
 62
     7
 10
-32.028119634934221
 20
199.7559525326904
 30
0.0
 40
1.0
  0
CIRCLE
  5
1BE
  8
DATA
  6
CONTINUOUS
 62
     7
 10
-36.128119634934208
 20
195.297405610125
 30
0.0
 40
1.0
  0
CIRCLE
  5
1BF
  8
DATA
  6
CONTINUOUS
 62
     7
 10
-27.92811963493422
 20
195.297405610125
 30
0.0
 40
1.0
  0
CIRCLE
  5
1C0
  8
DATA
  6
CONTINUOUS
 62
     7
 10
-41.927614571545909
 20
205.55544746930201
 30
0.0
 40
2.3000000000000109
  0
LINE
  5
1C1
  8
DATA
  6
CONTINUOUS
 62
     7
 10
-40.510779253580473
 20
205.55544746930201
 30
0.0
 11
-43.344449889511317
 21
205.55544746930201
 31
0.0
  0
LINE
  5
1C2
  8
DATA
  6
CONTINUOUS
 62
     7
 10
-41.927614571545909
 20
204.13861215133801
 30
0.0
 11
-41.927614571545909
 21
206.97228278726601
 31
0.0
  0
CIRCLE
  5
1C3
  8
DATA
  6
CONTINUOUS
 62
     7
 10
-22.128624698322561
 20
185.7564575960788
 30
0.0
 40
2.2999999999999821
  0
LINE
  5
1C4
  8
DATA
  6
CONTINUOUS
 62
     7
 10
-20.711789380357128
 20
185.7564575960788
 30
0.0
 11
-23.545460016287979
 21
185.7564575960788
 31
0.0
  0
LINE
  5
1C5
  8
DATA
  6
CONTINUOUS
 62
     7
 10
-22.128624698322561
 20
184.33962227811449
 30
0.0
 11
-22.128624698322561
 21
187.1732929140432
 31
0.0
  0
CIRCLE
  5
1C6
  8
DATA
  6
CONTINUOUS
 62
     7
 10
8.4718803650657861
 20
195.65595253269049
 30
0.0
 40
11.0
  0
CIRCLE
  5
1C7
  8
DATA
  6
CONTINUOUS
 62
     7
 10
8.4718803650657861
 20
195.65595253269049
 30
0.0
 40
8.5
  0
CIRCLE
  5
1C8
  8
DATA
  6
CONTINUOUS
 62
     7
 10
8.4718803650657861
 20
199.7559525326904
 30
0.0
 40
1.0
  0
CIRCLE
  5
1C9
  8
DATA
  6
CONTINUOUS
 62
     7
 10
4.3718803650657909
 20
195.297405610125
 30
0.0
 40
1.0
  0
CIRCLE
  5
1CA
  8
DATA
  6
CONTINUOUS
 62
     7
 10
12.57188036506578
 20
195.297405610125
 30
0.0
 40
1.0
  0
CIRCLE
  5
1CB
  8
DATA
  6
CONTINUOUS
 62
     7
 10
-1.4276145715459021
 20
205.55544746930201
 30
0.0
 40
2.3000000000000109
  0
LINE
  5
1CC
  8
DATA
  6
CONTINUOUS
 62
     7
 10
-0.0107792535804805
 20
205.55544746930201
 30
0.0
 11
-2.8444498895113242
 21
205.55544746930201
 31
0.0
  0
LINE
  5
1CD
  8
DATA
  6
CONTINUOUS
 62
     7
 10
-1.4276145715459021
 20
204.13861215133801
 30
0.0
 11
-1.4276145715459021
 21
206.97228278726601
 31
0.0
  0
CIRCLE
  5
1CE
  8
DATA
  6
CONTINUOUS
 62
     7
 10
18.37137530167745
 20
185.7564575960788
 30
0.0
 40
2.2999999999999821
  0
LINE
  5
1CF
  8
DATA
  6
CONTINUOUS
 62
     7
 10
19.788210619642872
 20
185.7564575960788
 30
0.0
 11
16.954539983712021
 21
185.7564575960788
 31
0.0
  0
LINE
  5
1D0
  8
DATA
  6
CONTINUOUS
 62
     7
 10
18.37137530167745
 20
184.33962227811449
 30
0.0
 11
18.37137530167745
 21
187.1732929140432
 31
0.0
  0
CIRCLE
  5
1D1
  8
DATA
  6
CONTINUOUS
 62
     7
 10
48.971880365065779
 20
195.65595253269049
 30
0.0
 40
11.0
  0
CIRCLE
  5
1D2
  8
DATA
  6
CONTINUOUS
 62
     7
 10
48.971880365065779
 20
195.65595253269049
 30
0.0
 40
8.5
  0
CIRCLE
  5
1D3
  8
DATA
  6
CONTINUOUS
 62
     7
 10
48.971880365065779
 20
199.7559525326904
 30
0.0
 40
1.0
  0
CIRCLE
  5
1D4
  8
DATA
  6
CONTINUOUS
 62
     7
 10
44.871880365065778
 20
195.297405610125
 30
0.0
 40
1.0
  0
CIRCLE
  5
1D5
  8
DATA
  6
CONTINUOUS
 62
     7
 10
53.071880365065788
 20
195.297405610125
 30
0.0
 40
1.0
  0
CIRCLE
  5
1D6
  8
DATA
  6
CONTINUOUS
 62
     7
 10
39.072385428454091
 20
205.55544746930201
 30
0.0
 40
2.3000000000000109
  0
LINE
  5
1D7
  8
DATA
  6
CONTINUOUS
 62
     7
 10
40.489220746419527
 20
205.55544746930201
 30
0.0
 11
37.655550110488683
 21
205.55544746930201
 31
0.0
  0
LINE
  5
1D8
  8
DATA
  6
CONTINUOUS
 62
     7
 10
39.072385428454091
 20
204.13861215133801
 30
0.0
 11
39.072385428454091
 21
206.97228278726601
 31
0.0
  0
CIRCLE
  5
1D9
  8
DATA
  6
CONTINUOUS
 62
     7
 10
58.871375301677453
 20
185.7564575960788
 30
0.0
 40
2.2999999999999821
  0
LINE
  5
1DA
  8
DATA
  6
CONTINUOUS
 62
     7
 10
60.288210619642861
 20
185.7564575960788
 30
0.0
 11
57.454539983712017
 21
185.7564575960788
 31
0.0
  0
LINE
  5
1DB
  8
DATA
  6
CONTINUOUS
 62
     7
 10
58.871375301677453
 20
184.33962227811449
 30
0.0
 11
58.871375301677453
 21
187.1732929140432
 31
0.0
  0
CIRCLE
  5
1DC
  8
DATA
  6
CONTINUOUS
 62
     7
 10
108.1058078813933
 20
195.65595253269049
 30
0.0
 40
11.000000000000011
  0
CIRCLE
  5
1DD
  8
DATA
  6
CONTINUOUS
 62
     7
 10
108.1058078813933
 20
195.65595253269049
 30
0.0
 40
8.5000000000000124
  0
CIRCLE
  5
1DE
  8
DATA
  6
CONTINUOUS
 62
     7
 10
108.1058078813933
 20
199.7559525326904
 30
0.0
 40
1.0
  0
CIRCLE
  5
1DF
  8
DATA
  6
CONTINUOUS
 62
     7
 10
104.0058078813933
 20
195.297405610125
 30
0.0
 40
1.0
  0
CIRCLE
  5
1E0
  8
DATA
  6
CONTINUOUS
 62
     7
 10
112.2058078813933
 20
195.297405610125
 30
0.0
 40
1.0
  0
CIRCLE
  5
1E1
  8
DATA
  6
CONTINUOUS
 62
     7
 10
98.206312944781587
 20
205.55544746930201
 30
0.0
 40
2.30000000000001
  0
LINE
  5
1E2
  8
DATA
  6
CONTINUOUS
 62
     7
 10
99.623148262747037
 20
205.55544746930201
 30
0.0
 11
96.789477626816193
 21
205.55544746930201
 31
0.0
  0
LINE
  5
1E3
  8
DATA
  6
CONTINUOUS
 62
     7
 10
98.206312944781587
 20
204.13861215133801
 30
0.0
 11
98.206312944781587
 21
206.97228278726601
 31
0.0
  0
CIRCLE
  5
1E4
  8
DATA
  6
CONTINUOUS
 62
     7
 10
118.00530281800501
 20
185.7564575960788
 30
0.0
 40
2.2999999999999821
  0
LINE
  5
1E5
  8
DATA
  6
CONTINUOUS
 62
     7
 10
119.4221381359704
 20
185.7564575960788
 30
0.0
 11
116.5884675000395
 21
185.7564575960788
 31
0.0
  0
LINE
  5
1E6
  8
DATA
  6
CONTINUOUS
 62
     7
 10
118.00530281800501
 20
184.33962227811449
 30
0.0
 11
118.00530281800501
 21
187.1732929140432
 31
0.0
  0
TEXT
  5
1E7
  8
DATA
 62
     7
 10
-63.2016591700894
 20
214.5442803583808
 30
0.0
 40
2.4432617187500001
  1
CH 1 OUTPUT
 50
180.0
 41
0.7
 11
-63.2016591700894
 21
212.10101863963081
 31
0.0
 73
     3
  0
TEXT
  5
1E8
  8
DATA
 62
     7
 10
-22.7016591700894
 20
214.5442803583808
 30
0.0
 40
2.4432617187500001
  1
CH 2 OUTPUT
 50
180.0
 41
0.7
 11
-22.7016591700894
 21
212.10101863963081
 31
0.0
 73
     3
  0
TEXT
  5
1E9
  8
DATA
 62
     7
 10
17.7983408299106
 20
214.5442803583808
 30
0.0
 40
2.4432617187500001
  1
CH 3 OUTPUT
 50
180.0
 41
0.7
 11
17.7983408299106
 21
212.10101863963081
 31
0.0
 73
     3
  0
TEXT
  5
1EA
  8
DATA
 62
     7
 10
58.2983408299106
 20
214.5442803583808
 30
0.0
 40
2.4432617187500001
  1
CH 4 OUTPUT
 50
180.0
 41
0.7
 11
58.2983408299106
 21
212.10101863963081
 31
0.0
 73
     3
  0
TEXT
  5
1EB
  8
DATA
 62
     7
 10
117.4283408299106
 20
214.5442803583808
 30
0.0
 40
2.4432617187500001
  1
MIX OUTPUT
 50
180.0
 41
0.7
 11
117.4283408299106
 21
212.10101863963081
 31
0.0
 73
     3
  0
CIRCLE
  5
1EC
  8
DATA
  6
CONTINUOUS
 62
     7
 10
-105.0
 20
202.99999999982001
 30
0.0
 40
0.5
  0
POLYLINE
  5
1ED
  8
DATA
  6
CONTINUOUS
 62
     7
 66
     1
 10
0.0
 20
0.0
 30
0.0
 70
     1
  0
VERTEX
  5
31E
  8
DATA
  6
CONTINUOUS
 62
     7
 10
-109.5
 20
208.99999999982001
 30
0.0
  0
VERTEX
  5
31F
  8
DATA
  6
CONTINUOUS
 62
     7
 10
-100.5
 20
208.99999999982001
 30
0.0
  0
VERTEX
  5
320
  8
DATA
  6
CONTINUOUS
 62
     7
 10
-100.5
 20
198.49999999981989
 30
0.0
  0
VERTEX
  5
321
  8
DATA
  6
CONTINUOUS
 62
     7
 10
-109.5
 20
198.49999999981989
 30
0.0
  0
SEQEND
  5
322
  8
DATA
  6
CONTINUOUS
 62
     7
  0
CIRCLE
  5
1F4
  8
DATA
  6
CONTINUOUS
 62
     7
 10
-105.0
 20
202.99999999982001
 30
0.0
 40
3.1649999999999912
  0
TEXT
  5
1F5
  8
DATA
 62
     7
 10
-111.6031937226724
 20
200.11980199139711
 30
0.0
 40
1.954609375
  1
12V500mA
 50
180.0
 41
0.7
 11
-111.6031937226724
 21
198.16519261639709
 31
0.0
 73
     3
  0
LINE
  5
1F6
  8
DATA
  6
CONTINUOUS
 62
     7
 10
-112.09569506841289
 20
201.14290199139711
 30
0.0
 11
-121.39569506841281
 21
201.14290199139711
 31
0.0
  0
LINE
  5
1F7
  8
DATA
  6
CONTINUOUS
 62
     7
 10
-112.8468508164831
 20
202.04111227002059
 30
0.0
 11
-114.5968508164831
 21
202.04111227002059
 31
0.0
  0
LINE
  5
1F8
  8
DATA
  6
CONTINUOUS
 62
     7
 10
-115.6468508164831
 20
202.04111227002059
 30
0.0
 11
-117.3968508164831
 21
202.04111227002059
 31
0.0
  0
LINE
  5
1F9
  8
DATA
  6
CONTINUOUS
 62
     7
 10
-118.44685081648311
 20
202.04111227002059
 30
0.0
 11
-120.19685081648311
 21
202.04111227002059
 31
0.0
  0
LINE
  5
1FA
  8
DATA
  6
CONTINUOUS
 62
     7
 10
-114.3559128766893
 20
204.63860675693971
 30
0.0
 11
-115.205912876689
 21
204.63860675693971
 31
0.0
  0
LINE
  5
1FB
  8
DATA
  6
CONTINUOUS
 62
     7
 10
-117.0059128766828
 20
204.63860675693971
 30
0.0
 11
-118.4959128766894
 21
204.63860675693971
 31
0.0
  0
CIRCLE
  5
1FC
  8
DATA
  6
CONTINUOUS
 62
     7
 10
-116.5559128766894
 20
204.63860675693971
 30
0.0
 40
0.4500000000000028
  0
ARC
  5
1FD
  8
DATA
  6
CONTINUOUS
 62
     7
 10
-116.5559128766894
 20
204.63860675693971
 30
0.0
 40
1.349999999999971
 50
225.1680788418447
 51
134.83192115815541
  0
LINE
  5
1FE
  8
DATA
  6
CONTINUOUS
 62
     7
 10
-112.1703925589272
 20
204.63860675693971
 30
0.0
 11
-113.4453925589268
 21
204.63860675693971
 31
0.0
  0
LINE
  5
1FF
  8
DATA
  6
CONTINUOUS
 62
     7
 10
-119.4367337342747
 20
204.63860675693971
 30
0.0
 11
-120.7117337342743
 21
204.63860675693971
 31
0.0
  0
LINE
  5
200
  8
DATA
  6
CONTINUOUS
 62
     7
 10
-120.0742337342746
 20
204.00110675693989
 30
0.0
 11
-120.0742337342746
 21
205.2761067569395
 31
0.0
  0
TEXT
  5
201
  8
DATA
 62
     7
 10
-112.17897096368679
 20
208.95324894317221
 30
0.0
 40
1.954609375
  1
DC ONLY
 50
180.0
 41
0.7
 11
-112.17897096368679
 21
206.99863956817231
 31
0.0
 73
     3
  0
LINE
  5
202
  8
DATA
  6
CONTINUOUS
 62
     7
 10
-113.5
 20
190.9274438948533
 30
0.0
 11
-113.5
 21
194.9274438948533
 31
0.0
  0
LINE
  5
203
  8
DATA
  6
CONTINUOUS
 62
     7
 10
-96.499999999999986
 20
190.9274438948533
 30
0.0
 11
-100.5
 21
190.9274438948533
 31
0.0
  0
LINE
  5
204
  8
DATA
  6
CONTINUOUS
 62
     7
 10
-109.5
 20
190.9274438948533
 30
0.0
 11
-113.5
 21
190.9274438948533
 31
0.0
  0
LINE
  5
205
  8
DATA
  6
CONTINUOUS
 62
     7
 10
-96.499999999999986
 20
194.9274438948533
 30
0.0
 11
-96.499999999999986
 21
190.9274438948533
 31
0.0
  0
LINE
  5
206
  8
DATA
  6
CONTINUOUS
 62
     7
 10
-113.5
 20
194.9274438948533
 30
0.0
 11
-96.499999999999986
 21
194.9274438948533
 31
0.0
  0
LINE
  5
207
  8
DATA
  6
CONTINUOUS
 62
     7
 10
-109.5
 20
188.9274438948533
 30
0.0
 11
-109.5
 21
194.9274438948533
 31
0.0
  0
LINE
  5
208
  8
DATA
  6
CONTINUOUS
 62
     7
 10
-100.5
 20
188.9274438948533
 30
0.0
 11
-109.5
 21
188.9274438948533
 31
0.0
  0
LINE
  5
209
  8
DATA
  6
CONTINUOUS
 62
     7
 10
-100.5
 20
194.9274438948533
 30
0.0
 11
-100.5
 21
188.9274438948533
 31
0.0
  0
CIRCLE
  5
20A
  8
DATA
  6
CONTINUOUS
 62
     7
 10
-105.0
 20
185.60394825065089
 30
0.0
 40
2.3000000000000109
  0
LINE
  5
20B
  8
DATA
  6
CONTINUOUS
 62
     7
 10
-103.58316468203461
 20
185.60394825065089
 30
0.0
 11
-106.41683531796539
 21
185.60394825065089
 31
0.0
  0
LINE
  5
20C
  8
DATA
  6
CONTINUOUS
 62
     7
 10
-105.0
 20
184.1871129326868
 30
0.0
 11
-105.0
 21
187.020783568615
 31
0.0
  0
LINE
  5
20D
  8
DATA
  6
CONTINUOUS
 62
     7
 10
-52.278119634934292
 20
181.94681098101739
 30
0.0
 11
-52.278119634934292
 21
211.94681098101739
 31
0.0
  0
LINE
  5
20E
  8
DATA
  6
CONTINUOUS
 62
     7
 10
-11.778119634934299
 20
181.94681098101739
 30
0.0
 11
-11.778119634934299
 21
211.94681098101739
 31
0.0
  0
LINE
  5
20F
  8
DATA
  6
CONTINUOUS
 62
     7
 10
28.721880365065701
 20
181.94681098101739
 30
0.0
 11
28.721880365065701
 21
211.94681098101739
 31
0.0
  0
TEXT
  5
210
  8
DATA
 62
     7
 10
90.822010366843813
 20
214.5442803583808
 30
0.0
 40
2.4432617187500001
  1
BALANCED OUTPUTS
 50
180.0
 41
0.7
 11
90.822010366843813
 21
212.10101863963081
 31
0.0
 73
     3
  0
LINE
  5
211
  8
DATA
  6
CONTINUOUS
 62
     7
 10
64.400000000000006
 20
213.43203892794239
 30
0.0
 11
61.900000000000013
 21
213.43203892794239
 31
0.0
  0
LINE
  5
212
  8
DATA
  6
CONTINUOUS
 62
     7
 10
92.269351973745344
 20
213.43203892794239
 30
0.0
 11
94.769351973745344
 21
213.43203892794239
 31
0.0
  0
LINE
  5
213
  8
DATA
  6
CONTINUOUS
 62
     7
 10
-132.30000000000001
 20
180.19999999981999
 30
0.0
 11
-11.003494479793821
 21
180.19999999981999
 31
0.0
  0
LINE
  5
214
  8
DATA
  6
CONTINUOUS
 62
     7
 10
0.5965055202061649
 20
180.19999999981999
 30
0.0
 11
156.30000000000001
 21
180.19999999981999
 31
0.0
  0
LINE
  5
215
  8
DATA
  6
CONTINUOUS
 62
     7
 10
-132.30000000000001
 20
217.99999999982001
 30
0.0
 11
-132.30000000000001
 21
180.19999999981999
 31
0.0
  0
LINE
  5
216
  8
DATA
  6
CONTINUOUS
 62
     7
 10
156.2999999999999
 20
180.19999999981999
 30
0.0
 11
156.2999999999999
 21
217.99999999982001
 31
0.0
  0
LINE
  5
217
  8
DATA
  6
CONTINUOUS
 62
     7
 10
156.2999999999999
 20
180.19999999981999
 30
0.0
 11
161.0606601717798
 21
175.43933982804009
 31
0.0
  0
LINE
  5
218
  8
DATA
  6
CONTINUOUS
 62
     7
 10
-132.30000000000001
 20
180.19999999981999
 30
0.0
 11
-137.0606601717798
 21
175.43933982804009
 31
0.0
  0
LINE
  5
219
  8
DATA
  6
CONTINUOUS
 62
     7
 10
141.5
 20
205.99999999982001
 30
0.0
 11
141.5
 21
209.99999999982001
 31
0.0
  0
LINE
  5
21A
  8
DATA
  6
CONTINUOUS
 62
     7
 10
133.5
 20
205.99999999982001
 30
0.0
 11
133.5
 21
209.99999999982001
 31
0.0
  0
LINE
  5
21B
  8
DATA
  6
CONTINUOUS
 62
     7
 10
133.5
 20
205.99999999982001
 30
0.0
 11
141.5
 21
205.99999999982001
 31
0.0
  0
LINE
  5
21C
  8
DATA
  6
CONTINUOUS
 62
     7
 10
133.5
 20
209.99999999982001
 30
0.0
 11
141.5
 21
209.99999999982001
 31
0.0
  0
LINE
  5
21D
  8
DATA
  6
CONTINUOUS
 62
     7
 10
135.97999999999999
 20
205.99999999982001
 30
0.0
 11
135.97999999999999
 21
209.99999999982001
 31
0.0
  0
TEXT
  5
21E
  8
DATA
 62
     7
 10
138.95541388204651
 20
212.05120007189711
 30
0.0
 40
1.221630859375
  1
MID
 50
180.0
 41
0.7
 11
138.95541388204651
 21
210.8295692125221
 31
0.0
 73
     3
  0
TEXT
  5
21F
  8
DATA
 62
     7
 10
133.13316193798099
 20
212.05120007189711
 30
0.0
 40
1.221630859375
  1
HIGH
 50
180.0
 41
0.7
 11
133.13316193798099
 21
210.8295692125221
 31
0.0
 73
     3
  0
TEXT
  5
220
  8
DATA
 62
     7
 10
144.01359751989239
 20
212.05120007189711
 30
0.0
 40
1.221630859375
  1
LOW
 50
180.0
 41
0.7
 11
144.01359751989239
 21
210.8295692125221
 31
0.0
 73
     3
  0
LINE
  5
221
  8
DATA
  6
CONTINUOUS
 62
     7
 10
134.09999999999999
 20
205.99999999982001
 30
0.0
 11
134.09999999999999
 21
209.99999999982001
 31
0.0
  0
LINE
  5
222
  8
DATA
  6
CONTINUOUS
 62
     7
 10
134.69999999999999
 20
205.99999999982001
 30
0.0
 11
134.69999999999999
 21
209.99999999982001
 31
0.0
  0
LINE
  5
223
  8
DATA
  6
CONTINUOUS
 62
     7
 10
135.2999999999999
 20
205.99999999982001
 30
0.0
 11
135.2999999999999
 21
209.99999999982001
 31
0.0
  0
TEXT
  5
224
  8
DATA
 62
     7
 10
143.7558543056191
 20
204.6054496219887
 30
0.0
 40
1.221630859375
  1
AUTO CORRECTION
 50
180.0
 41
0.7
 11
143.7558543056191
 21
203.38381876261371
 31
0.0
 73
     3
  0
CIRCLE
  5
225
  8
DATA
  6
CONTINUOUS
 62
     7
 10
-5.2034944797938323
 20
182.70689639193529
 30
0.0
 40
2.2999999999999821
  0
LINE
  5
226
  8
DATA
  6
CONTINUOUS
 62
     7
 10
-3.7866591618284091
 20
182.70689639193529
 30
0.0
 11
-6.6203297977592541
 21
182.70689639193529
 31
0.0
  0
LINE
  5
227
  8
DATA
  6
CONTINUOUS
 62
     7
 10
-5.2034944797938323
 20
181.29006107397109
 30
0.0
 11
-5.2034944797938323
 21
184.12373170989969
 31
0.0
  0
LINE
  5
228
  8
DATA
  6
CONTINUOUS
 62
     7
 10
-0.2034944797938323
 20
183.8979598933706
 30
0.0
 11
-0.2034944797938323
 21
180.99999999981989
 31
0.0
  0
ARC
  5
229
  8
DATA
  6
CONTINUOUS
 62
     7
 10
-2.2034944797938461
 20
183.8979598933706
 30
0.0
 40
2.0000000000000142
 50
0.0
 51
89.999999999999602
  0
LINE
  5
22A
  8
DATA
  6
CONTINUOUS
 62
     7
 10
-8.2034944797938323
 20
185.8979598933706
 30
0.0
 11
-2.2034944797938318
 21
185.8979598933706
 31
0.0
  0
ARC
  5
22B
  8
DATA
  6
CONTINUOUS
 62
     7
 10
-8.2034944797938323
 20
183.8979598933706
 30
0.0
 40
2.0
 50
90.0
 51
180.0
  0
LINE
  5
22C
  8
DATA
  6
CONTINUOUS
 62
     7
 10
-10.203494479793831
 20
180.99999999981989
 30
0.0
 11
-10.203494479793831
 21
183.8979598933706
 31
0.0
  0
ARC
  5
22D
  8
DATA
  6
CONTINUOUS
 62
     7
 10
-11.003494479793821
 20
180.99999999981989
 30
0.0
 40
0.799999999999983
 50
270.0
 51
0.0000000000010232
  0
ARC
  5
22E
  8
DATA
  6
CONTINUOUS
 62
     7
 10
0.5965055202061791
 20
180.99999999981989
 30
0.0
 40
0.8000000000000113
 50
180.0
 51
269.99999999999898
  0
ARC
  5
22F
  8
DATA
  6
CONTINUOUS
 62
     7
 10
-5.2034944797938474
 20
108.0193725272009
 30
0.0
 40
2.349681418322318
 50
11.803161205817039
 51
168.19683879418281
  0
LINE
  5
230
  8
DATA
  6
CONTINUOUS
 62
     7
 10
-113.5
 20
117.0
 30
0.0
 11
-113.5
 21
108.5
 31
0.0
  0
LINE
  5
231
  8
DATA
  6
CONTINUOUS
 62
     7
 10
-96.499999999999986
 20
117.0
 30
0.0
 11
-96.499999999999986
 21
108.5
 31
0.0
  0
LINE
  5
232
  8
DATA
  6
CONTINUOUS
 62
     7
 10
-109.5
 20
121.0
 30
0.0
 11
-100.5
 21
121.0
 31
0.0
  0
LINE
  5
233
  8
DATA
  6
CONTINUOUS
 62
     7
 10
-113.5
 20
117.0
 30
0.0
 11
-109.5
 21
117.0
 31
0.0
  0
LINE
  5
234
  8
DATA
  6
CONTINUOUS
 62
     7
 10
-100.5
 20
117.0
 30
0.0
 11
-96.499999999999986
 21
117.0
 31
0.0
  0
LINE
  5
235
  8
DATA
  6
CONTINUOUS
 62
     7
 10
-100.5
 20
121.0
 30
0.0
 11
-100.5
 21
117.0
 31
0.0
  0
LINE
  5
236
  8
DATA
  6
CONTINUOUS
 62
     7
 10
-109.5
 20
121.0
 30
0.0
 11
-109.5
 21
117.0
 31
0.0
  0
LINE
  5
237
  8
DATA
  6
CONTINUOUS
 62
     7
 10
-109.5
 20
119.1238699383423
 30
0.0
 11
-100.5
 21
119.1238699383423
 31
0.0
  0
LINE
  5
238
  8
DATA
  6
CONTINUOUS
 62
     7
 10
-109.5
 20
108.5
 30
0.0
 11
-109.5
 21
113.4478208926685
 31
0.0
  0
LINE
  5
239
  8
DATA
  6
CONTINUOUS
 62
     7
 10
-100.5
 20
113.4478208926685
 30
0.0
 11
-100.5
 21
108.5
 31
0.0
  0
LINE
  5
23A
  8
DATA
  6
CONTINUOUS
 62
     7
 10
-109.5
 20
113.4478208926685
 30
0.0
 11
-100.5
 21
113.4478208926685
 31
0.0
  0
LINE
  5
23B
  8
DATA
  6
CONTINUOUS
 62
     7
 10
129.46311433838659
 20
-37.516795098317452
 30
0.0
 11
129.46311433838659
 21
-28.221795098317472
 31
0.0
  0
LINE
  5
23C
  8
DATA
  6
CONTINUOUS
 62
     7
 10
162.96354398391239
 20
-28.877302644402452
 30
0.0
 11
129.46311433838659
 21
-28.221795098317472
 31
0.0
  0
LINE
  5
23D
  8
DATA
  6
CONTINUOUS
 62
     7
 10
162.96354398391239
 20
-36.86730264440245
 30
0.0
 11
129.46311433838659
 21
-37.516795098317452
 31
0.0
  0
ARC
  5
23E
  8
DATA
  6
CONTINUOUS
 62
     7
 10
161.61348915752589
 20
-32.872302644402453
 30
0.0
 40
4.2169506796083871
 50
288.6719687562063
 51
71.328031243793603
  0
LINE
  5
23F
  8
DATA
  6
CONTINUOUS
 62
     7
 10
132.59999999999991
 20
-28.283174974460881
 30
0.0
 11
132.59999999999991
 21
-26.600000000000019
 31
0.0
  0
LINE
  5
240
  8
DATA
  6
CONTINUOUS
 62
     7
 10
140.39999999999989
 20
-28.435798654621522
 30
0.0
 11
140.39999999999989
 21
-26.600000000000019
 31
0.0
  0
ARC
  5
241
  8
DATA
  6
CONTINUOUS
 62
     7
 10
133.27431578064991
 20
-23.025684219350129
 30
0.0
 40
4.9821970718575148
 50
203.34546163727799
 51
225.84168081770511
  0
ARC
  5
242
  8
DATA
  6
CONTINUOUS
 62
     7
 10
139.72568421935009
 20
-23.025684219350129
 30
0.0
 40
4.9821970718574979
 50
314.15831918229469
 51
336.65453836272201
  0
LINE
  5
243
  8
DATA
  6
CONTINUOUS
 62
     7
 10
129.80350112656319
 20
-26.600000000000019
 30
0.0
 11
143.1964988734367
 21
-26.600000000000019
 31
0.0
  0
LINE
  5
244
  8
DATA
  6
CONTINUOUS
 62
     7
 10
159.30000000000001
 20
-28.805617571933851
 30
0.0
 11
159.30000000000001
 21
-36.938329917703562
 31
0.0
  0
LINE
  5
245
  8
DATA
  6
CONTINUOUS
 62
     7
 10
157.69999999999999
 20
-28.774310150362449
 30
0.0
 11
157.69999999999999
 21
-36.969350054975223
 31
0.0
  0
LINE
  5
246
  8
DATA
  6
CONTINUOUS
 62
     7
 10
84.536885661613454
 20
-37.516795098317452
 30
0.0
 11
84.536885661613454
 21
-28.221795098317472
 31
0.0
  0
LINE
  5
247
  8
DATA
  6
CONTINUOUS
 62
     7
 10
51.036456016087598
 20
-28.877302644402452
 30
0.0
 11
84.536885661613454
 21
-28.221795098317472
 31
0.0
  0
LINE
  5
248
  8
DATA
  6
CONTINUOUS
 62
     7
 10
51.036456016087598
 20
-36.86730264440245
 30
0.0
 11
84.536885661613454
 21
-37.516795098317452
 31
0.0
  0
ARC
  5
249
  8
DATA
  6
CONTINUOUS
 62
     7
 10
52.386510842474152
 20
-32.872302644402453
 30
0.0
 40
4.2169506796083871
 50
108.6719687562064
 51
251.32803124379359
  0
LINE
  5
24A
  8
DATA
  6
CONTINUOUS
 62
     7
 10
81.400000000000034
 20
-28.283174974460881
 30
0.0
 11
81.400000000000034
 21
-26.600000000000019
 31
0.0
  0
LINE
  5
24B
  8
DATA
  6
CONTINUOUS
 62
     7
 10
73.600000000000051
 20
-28.435798654621522
 30
0.0
 11
73.600000000000051
 21
-26.600000000000019
 31
0.0
  0
ARC
  5
24C
  8
DATA
  6
CONTINUOUS
 62
     7
 10
80.725684219350157
 20
-23.025684219350129
 30
0.0
 40
4.9821970718575077
 50
314.15831918229492
 51
336.65453836272201
  0
ARC
  5
24D
  8
DATA
  6
CONTINUOUS
 62
     7
 10
74.274315780649914
 20
-23.025684219350129
 30
0.0
 40
4.9821970718575086
 50
203.34546163727799
 51
225.84168081770531
  0
LINE
  5
24E
  8
DATA
  6
CONTINUOUS
 62
     7
 10
84.196498873436795
 20
-26.600000000000019
 30
0.0
 11
70.803501126563305
 21
-26.600000000000019
 31
0.0
  0
LINE
  5
24F
  8
DATA
  6
CONTINUOUS
 62
     7
 10
54.700000000000017
 20
-28.805617571933851
 30
0.0
 11
54.700000000000017
 21
-36.938329917703562
 31
0.0
  0
LINE
  5
250
  8
DATA
  6
CONTINUOUS
 62
     7
 10
56.300000000000018
 20
-28.774310150362449
 30
0.0
 11
56.300000000000018
 21
-36.969350054975223
 31
0.0
  0
LINE
  5
251
  8
DATA
  6
CONTINUOUS
 62
     7
 10
-137.5
 20
108.5
 30
0.0
 11
161.5
 21
108.5
 31
0.0
  0
LINE
  5
252
  8
DATA
  6
CONTINUOUS
 62
     7
 10
250.0
 20
-162.5
 30
0.0
 11
383.5
 21
-162.5
 31
0.0
  0
LINE
  5
253
  8
DATA
  6
CONTINUOUS
 62
     7
 10
250.0
 20
-119.5
 30
0.0
 11
383.5
 21
-119.5
 31
0.0
  0
LINE
  5
254
  8
DATA
  6
CONTINUOUS
 62
     7
 10
250.0
 20
-162.5
 30
0.0
 11
250.0
 21
-119.5
 31
0.0
  0
LINE
  5
255
  8
DATA
  6
CONTINUOUS
 62
     7
 10
263.0
 20
-162.5
 30
0.0
 11
263.0
 21
-119.5
 31
0.0
  0
LINE
  5
256
  8
DATA
  6
CONTINUOUS
 62
     7
 10
263.5
 20
-162.5
 30
0.0
 11
263.5
 21
-119.5
 31
0.0
  0
LINE
  5
257
  8
DATA
  6
CONTINUOUS
 62
     7
 10
237.483204901352
 20
-155.74080664936881
 30
0.0
 11
246.7782049013521
 21
-155.74080664936881
 31
0.0
  0
LINE
  5
258
  8
DATA
  6
CONTINUOUS
 62
     7
 10
246.12269735526701
 20
-72.052380260242984
 30
0.0
 11
246.7782049013521
 21
-155.74080664936881
 31
0.0
  0
LINE
  5
259
  8
DATA
  6
CONTINUOUS
 62
     7
 10
238.132697355267
 20
-72.052380260242984
 30
0.0
 11
237.483204901352
 21
-155.74080664936881
 31
0.0
  0
ARC
  5
25A
  8
DATA
  6
CONTINUOUS
 62
     7
 10
242.127697355267
 20
-73.402435086629538
 30
0.0
 40
4.2169506796083907
 50
18.671968756206478
 51
161.3280312437935
  0
LINE
  5
25B
  8
DATA
  6
CONTINUOUS
 62
     7
 10
246.71682502520861
 20
-152.6039209877554
 30
0.0
 11
248.39999999966949
 21
-152.6039209877554
 31
0.0
  0
LINE
  5
25C
  8
DATA
  6
CONTINUOUS
 62
     7
 10
246.56420134504799
 20
-144.80392098775539
 30
0.0
 11
248.39999999966949
 21
-144.80392098775539
 31
0.0
  0
ARC
  5
25D
  8
DATA
  6
CONTINUOUS
 62
     7
 10
251.97431578031939
 20
-151.92960520710551
 30
0.0
 40
4.9821970718575184
 50
224.158319182295
 51
246.65453836272209
  0
ARC
  5
25E
  8
DATA
  6
CONTINUOUS
 62
     7
 10
251.97431578031939
 20
-145.47823676840531
 30
0.0
 40
4.9821970718575352
 50
113.34546163727789
 51
135.841680817705
  0
LINE
  5
25F
  8
DATA
  6
CONTINUOUS
 62
     7
 10
248.39999999966949
 20
-155.40041986119209
 30
0.0
 11
248.39999999966949
 21
-142.0074221143187
 31
0.0
  0
LINE
  5
260
  8
DATA
  6
CONTINUOUS
 62
     7
 10
246.15139284914221
 20
-75.715924244155389
 30
0.0
 11
238.1042651780258
 21
-75.715924244155389
 31
0.0
  0
LINE
  5
261
  8
DATA
  6
CONTINUOUS
 62
     7
 10
246.1639251922509
 20
-77.315924244155411
 30
0.0
 11
238.0918478346594
 21
-77.315924244155411
 31
0.0
  0
LINE
  5
262
  8
DATA
  6
CONTINUOUS
 62
     7
 10
288.68520214148202
 20
-164.5
 30
0.0
 11
278.88520214148201
 21
-164.5
 31
0.0
  0
LINE
  5
263
  8
DATA
  6
CONTINUOUS
 62
     7
 10
288.68520214148202
 20
-164.5
 30
0.0
 11
289.45232542915318
 21
-162.5
 31
0.0
  0
LINE
  5
264
  8
DATA
  6
CONTINUOUS
 62
     7
 10
278.88520214148201
 20
-164.5
 30
0.0
 11
278.1180788538108
 21
-162.5
 31
0.0
  0
LINE
  5
265
  8
DATA
  6
CONTINUOUS
 62
     7
 10
366.68520214148202
 20
-164.5
 30
0.0
 11
356.88520214148201
 21
-164.5
 31
0.0
  0
LINE
  5
266
  8
DATA
  6
CONTINUOUS
 62
     7
 10
366.68520214148202
 20
-164.5
 30
0.0
 11
367.45232542915318
 21
-162.5
 31
0.0
  0
LINE
  5
267
  8
DATA
  6
CONTINUOUS
 62
     7
 10
356.88520214148201
 20
-164.5
 30
0.0
 11
356.11807885381069
 21
-162.5
 31
0.0
  0
CIRCLE
  5
268
  8
DATA
  6
CONTINUOUS
 62
     7
 10
278.0
 20
-152.5
 30
0.0
 40
2.9000000000000048
  0
CIRCLE
  5
269
  8
DATA
  6
CONTINUOUS
 62
     7
 10
278.0
 20
-152.5
 30
0.0
 40
6.0
  0
LINE
  5
26A
  8
DATA
  6
CONTINUOUS
 62
     7
 10
276.55000000000001
 20
-152.5
 30
0.0
 11
279.44999999999999
 21
-152.5
 31
0.0
  0
LINE
  5
26B
  8
DATA
  6
CONTINUOUS
 62
     7
 10
278.0
 20
-153.94999999999999
 30
0.0
 11
278.0
 21
-151.05000000000001
 31
0.0
  0
CIRCLE
  5
26C
  8
DATA
  6
CONTINUOUS
 62
     7
 10
278.0
 20
-130.5
 30
0.0
 40
2.9000000000000048
  0
CIRCLE
  5
26D
  8
DATA
  6
CONTINUOUS
 62
     7
 10
278.0
 20
-130.5
 30
0.0
 40
6.0
  0
LINE
  5
26E
  8
DATA
  6
CONTINUOUS
 62
     7
 10
276.55000000000001
 20
-130.5
 30
0.0
 11
279.44999999999999
 21
-130.5
 31
0.0
  0
LINE
  5
26F
  8
DATA
  6
CONTINUOUS
 62
     7
 10
278.0
 20
-131.94999999999999
 30
0.0
 11
278.0
 21
-129.05000000000001
 31
0.0
  0
CIRCLE
  5
270
  8
DATA
  6
CONTINUOUS
 62
     7
 10
363.0
 20
-152.5
 30
0.0
 40
2.8999999999999768
  0
CIRCLE
  5
271
  8
DATA
  6
CONTINUOUS
 62
     7
 10
363.0
 20
-152.5
 30
0.0
 40
6.0
  0
LINE
  5
272
  8
DATA
  6
CONTINUOUS
 62
     7
 10
361.55000000000001
 20
-152.5
 30
0.0
 11
364.44999999999999
 21
-152.5
 31
0.0
  0
LINE
  5
273
  8
DATA
  6
CONTINUOUS
 62
     7
 10
363.0
 20
-153.94999999999999
 30
0.0
 11
363.0
 21
-151.05000000000001
 31
0.0
  0
LINE
  5
274
  8
DATA
  6
CONTINUOUS
 62
     7
 10
383.5
 20
-119.5
 30
0.0
 11
383.5
 21
-162.5
 31
0.0
  0
LINE
  5
275
  8
DATA
  6
CONTINUOUS
 62
     7
 10
396.0
 20
-133.43000000000001
 30
0.0
 11
396.0
 21
-139.43000000000001
 31
0.0
  0
ARC
  5
276
  8
DATA
  6
CONTINUOUS
 62
     7
 10
383.5
 20
-127.20999999999999
 30
0.0
 40
1.8700000000000041
 50
270.0
 51
90.0
  0
LINE
  5
277
  8
DATA
  6
CONTINUOUS
 62
     7
 10
383.5
 20
-139.43000000000001
 30
0.0
 11
396.0
 21
-139.43000000000001
 31
0.0
  0
LINE
  5
278
  8
DATA
  6
CONTINUOUS
 62
     7
 10
383.5
 20
-133.43000000000001
 30
0.0
 11
396.0
 21
-133.43000000000001
 31
0.0
  0
LINE
  5
279
  8
DATA
  6
CONTINUOUS
 62
     7
 10
383.5
 20
-135.15000000000001
 30
0.0
 11
396.0
 21
-135.15000000000001
 31
0.0
  0
ENDSEC
  0
EOF
